  0
SECTION
  2
HEADER
  9
$ACADVER
  1
AC1021
  9
$ACADMAINTVER
 70
    25
  9
$DWGCODEPAGE
  3
ANSI_1252
  9
$LASTSAVEDBY
  1
Brian Hickman
  9
$CUSTOMPROPERTYTAG
  1
AmdtFileType
  9
$CUSTOMPROPERTY
  1
83
  9
$INSBASE
 10
0.0
 20
0.0
 30
0.0
  9
$EXTMIN
 10
-96.48304674538234
 20
27.1641865936262
 30
0.0
  9
$EXTMAX
 10
-86.48304674538232
 20
36.17996271504092
 30
0.0
  9
$LIMMIN
 10
0.0
 20
0.0
  9
$LIMMAX
 10
12.0
 20
9.0
  9
$ORTHOMODE
 70
     0
  9
$REGENMODE
 70
     1
  9
$FILLMODE
 70
     1
  9
$QTEXTMODE
 70
     0
  9
$MIRRTEXT
 70
     1
  9
$LTSCALE
 40
1.0
  9
$ATTMODE
 70
     1
  9
$TEXTSIZE
 40
0.2
  9
$TRACEWID
 40
0.05
  9
$TEXTSTYLE
  7
Standard
  9
$CLAYER
  8
Form
  9
$CELTYPE
  6
ByLayer
  9
$CECOLOR
 62
   256
  9
$CELTSCALE
 40
1.0
  9
$DISPSILH
 70
     0
  9
$DIMSCALE
 40
3.0
  9
$DIMASZ
 40
0.1
  9
$DIMEXO
 40
0.05
  9
$DIMDLI
 40
0.5
  9
$DIMRND
 40
0.0
  9
$DIMDLE
 40
0.0
  9
$DIMEXE
 40
0.1
  9
$DIMTP
 40
0.1
  9
$DIMTM
 40
0.1
  9
$DIMTXT
 40
0.12
  9
$DIMCEN
 40
0.0
  9
$DIMTSZ
 40
0.0
  9
$DIMTOL
 70
     0
  9
$DIMLIM
 70
     0
  9
$DIMTIH
 70
     1
  9
$DIMTOH
 70
     1
  9
$DIMSE1
 70
     0
  9
$DIMSE2
 70
     0
  9
$DIMTAD
 70
     0
  9
$DIMZIN
 70
     7
  9
$DIMBLK
  1

  9
$DIMASO
 70
     1
  9
$DIMSHO
 70
     1
  9
$DIMPOST
  1

  9
$DIMAPOST
  1
mm
  9
$DIMALT
 70
     0
  9
$DIMALTD
 70
     2
  9
$DIMALTF
 40
25.4
  9
$DIMLFAC
 40
1.0
  9
$DIMTOFL
 70
     0
  9
$DIMTVP
 40
0.0
  9
$DIMTIX
 70
     0
  9
$DIMSOXD
 70
     0
  9
$DIMSAH
 70
     0
  9
$DIMBLK1
  1

  9
$DIMBLK2
  1

  9
$DIMSTYLE
  2
AM_ANSI
  9
$DIMCLRD
 70
     4
  9
$DIMCLRE
 70
     4
  9
$DIMCLRT
 70
   256
  9
$DIMTFAC
 40
0.71
  9
$DIMGAP
 40
0.06
  9
$DIMJUST
 70
     0
  9
$DIMSD1
 70
     0
  9
$DIMSD2
 70
     0
  9
$DIMTOLJ
 70
     1
  9
$DIMTZIN
 70
     7
  9
$DIMALTZ
 70
     0
  9
$DIMALTTZ
 70
     0
  9
$DIMUPT
 70
     0
  9
$DIMDEC
 70
     3
  9
$DIMTDEC
 70
     3
  9
$DIMALTU
 70
     2
  9
$DIMALTTD
 70
     2
  9
$DIMTXSTY
  7
ADESK1
  9
$DIMAUNIT
 70
     0
  9
$DIMADEC
 70
     1
  9
$DIMALTRND
 40
0.0
  9
$DIMAZIN
 70
     2
  9
$DIMDSEP
 70
    46
  9
$DIMATFIT
 70
     3
  9
$DIMFRAC
 70
     0
  9
$DIMLDRBLK
  1

  9
$DIMLUNIT
 70
     2
  9
$DIMLWD
 70
    -1
  9
$DIMLWE
 70
    -1
  9
$DIMTMOVE
 70
     0
  9
$DIMFXL
 40
1.0
  9
$DIMFXLON
 70
     0
  9
$DIMJOGANG
 40
0.7853981633974483
  9
$DIMTFILL
 70
     0
  9
$DIMTFILLCLR
 70
     0
  9
$DIMARCSYM
 70
     0
  9
$DIMLTYPE
  6

  9
$DIMLTEX1
  6

  9
$DIMLTEX2
  6

  9
$LUNITS
 70
     2
  9
$LUPREC
 70
     8
  9
$SKETCHINC
 40
0.1
  9
$FILLETRAD
 40
0.25
  9
$AUNITS
 70
     0
  9
$AUPREC
 70
     8
  9
$MENU
  1
.
  9
$ELEVATION
 40
0.0
  9
$PELEVATION
 40
0.0
  9
$THICKNESS
 40
0.0
  9
$LIMCHECK
 70
     0
  9
$CHAMFERA
 40
0.1
  9
$CHAMFERB
 40
0.1
  9
$CHAMFERC
 40
1.0
  9
$CHAMFERD
 40
0.0
  9
$SKPOLY
 70
     0
  9
$TDCREATE
 40
2452331.344913958
  9
$TDUCREATE
 40
2452331.636580625
  9
$TDUPDATE
 40
2456484.437085440
  9
$TDUUPDATE
 40
2456484.728752106
  9
$TDINDWG
 40
9.1804398380
  9
$TDUSRTIMER
 40
9.1804391551
  9
$USRTIMER
 70
     1
  9
$ANGBASE
 50
0.0
  9
$ANGDIR
 70
     0
  9
$PDMODE
 70
     2
  9
$PDSIZE
 40
0.2
  9
$PLINEWID
 40
0.0
  9
$SPLFRAME
 70
     0
  9
$SPLINETYPE
 70
     6
  9
$SPLINESEGS
 70
     8
  9
$HANDSEED
  5
C893
  9
$SURFTAB1
 70
     6
  9
$SURFTAB2
 70
     6
  9
$SURFTYPE
 70
     6
  9
$SURFU
 70
     6
  9
$SURFV
 70
     6
  9
$UCSBASE
  2

  9
$UCSNAME
  2

  9
$UCSORG
 10
0.0
 20
0.0
 30
0.0
  9
$UCSXDIR
 10
1.0
 20
0.0
 30
0.0
  9
$UCSYDIR
 10
0.0
 20
1.0
 30
0.0
  9
$UCSORTHOREF
  2

  9
$UCSORTHOVIEW
 70
     0
  9
$UCSORGTOP
 10
0.0
 20
0.0
 30
0.0
  9
$UCSORGBOTTOM
 10
0.0
 20
0.0
 30
0.0
  9
$UCSORGLEFT
 10
0.0
 20
0.0
 30
0.0
  9
$UCSORGRIGHT
 10
0.0
 20
0.0
 30
0.0
  9
$UCSORGFRONT
 10
0.0
 20
0.0
 30
0.0
  9
$UCSORGBACK
 10
0.0
 20
0.0
 30
0.0
  9
$PUCSBASE
  2

  9
$PUCSNAME
  2

  9
$PUCSORG
 10
0.0
 20
0.0
 30
0.0
  9
$PUCSXDIR
 10
1.0
 20
0.0
 30
0.0
  9
$PUCSYDIR
 10
0.0
 20
1.0
 30
0.0
  9
$PUCSORTHOREF
  2

  9
$PUCSORTHOVIEW
 70
     0
  9
$PUCSORGTOP
 10
0.0
 20
0.0
 30
0.0
  9
$PUCSORGBOTTOM
 10
0.0
 20
0.0
 30
0.0
  9
$PUCSORGLEFT
 10
0.0
 20
0.0
 30
0.0
  9
$PUCSORGRIGHT
 10
0.0
 20
0.0
 30
0.0
  9
$PUCSORGFRONT
 10
0.0
 20
0.0
 30
0.0
  9
$PUCSORGBACK
 10
0.0
 20
0.0
 30
0.0
  9
$USERI1
 70
     0
  9
$USERI2
 70
     0
  9
$USERI3
 70
     0
  9
$USERI4
 70
     0
  9
$USERI5
 70
     0
  9
$USERR1
 40
0.0
  9
$USERR2
 40
0.0
  9
$USERR3
 40
0.0
  9
$USERR4
 40
0.0
  9
$USERR5
 40
0.0
  9
$WORLDVIEW
 70
     1
  9
$SHADEDGE
 70
     3
  9
$SHADEDIF
 70
    70
  9
$TILEMODE
 70
     1
  9
$MAXACTVP
 70
    64
  9
$PINSBASE
 10
0.0
 20
0.0
 30
0.0
  9
$PLIMCHECK
 70
     0
  9
$PEXTMIN
 10
1.000000000000000E+20
 20
1.000000000000000E+20
 30
1.000000000000000E+20
  9
$PEXTMAX
 10
-1.000000000000000E+20
 20
-1.000000000000000E+20
 30
-1.000000000000000E+20
  9
$PLIMMIN
 10
-0.1979161059762549
 20
-0.2812499887361301
  9
$PLIMMAX
 10
10.80208365372785
 20
8.218749770967976
  9
$UNITMODE
 70
     0
  9
$VISRETAIN
 70
     1
  9
$PLINEGEN
 70
     0
  9
$PSLTSCALE
 70
     1
  9
$TREEDEPTH
 70
  3020
  9
$CMLSTYLE
  2
Standard
  9
$CMLJUST
 70
     0
  9
$CMLSCALE
 40
1.0
  9
$PROXYGRAPHICS
 70
     1
  9
$MEASUREMENT
 70
     0
  9
$CELWEIGHT
370
    -1
  9
$ENDCAPS
280
     0
  9
$JOINSTYLE
280
     0
  9
$LWDISPLAY
290
     0
  9
$INSUNITS
 70
     1
  9
$HYPERLINKBASE
  1

  9
$STYLESHEET
  1

  9
$XEDIT
290
     1
  9
$CEPSNTYPE
380
     0
  9
$PSTYLEMODE
290
     1
  9
$FINGERPRINTGUID
  2
{7E4F1DEE-29BF-11D6-A7D1-0050BAE69E35}
  9
$VERSIONGUID
  2
{DA897D9E-352F-4424-81BD-425A1CF911D7}
  9
$EXTNAMES
290
     1
  9
$PSVPSCALE
 40
0.0
  9
$OLESTARTUP
290
     0
  9
$SORTENTS
280
   127
  9
$INDEXCTL
280
     1
  9
$HIDETEXT
280
     1
  9
$XCLIPFRAME
290
     0
  9
$HALOGAP
280
     0
  9
$OBSCOLOR
 70
   257
  9
$OBSLTYPE
280
     0
  9
$INTERSECTIONDISPLAY
280
     0
  9
$INTERSECTIONCOLOR
 70
   257
  9
$DIMASSOC
280
     2
  9
$PROJECTNAME
  1

  9
$CAMERADISPLAY
290
     0
  9
$LENSLENGTH
 40
50.0
  9
$CAMERAHEIGHT
 40
0.0
  9
$STEPSPERSEC
 40
2.0
  9
$STEPSIZE
 40
6.0
  9
$3DDWFPREC
 40
2.0
  9
$PSOLWIDTH
 40
0.25
  9
$PSOLHEIGHT
 40
4.0
  9
$LOFTANG1
 40
1.570796326794896
  9
$LOFTANG2
 40
1.570796326794896
  9
$LOFTMAG1
 40
0.0
  9
$LOFTMAG2
 40
0.0
  9
$LOFTPARAM
 70
     7
  9
$LOFTNORMALS
280
     1
  9
$LATITUDE
 40
37.795
  9
$LONGITUDE
 40
-122.394
  9
$NORTHDIRECTION
 40
0.0
  9
$TIMEZONE
 70
 -8000
  9
$LIGHTGLYPHDISPLAY
280
     1
  9
$TILEMODELIGHTSYNCH
280
     1
  9
$CMATERIAL
347
164B
  9
$SOLIDHIST
280
     1
  9
$SHOWHIST
280
     1
  9
$DWFFRAME
280
     2
  9
$DGNFRAME
280
     0
  9
$REALWORLDSCALE
290
     1
  9
$INTERFERECOLOR
 62
     1
  9
$INTERFEREOBJVS
345
166D
  9
$INTERFEREVPVS
346
166A
  9
$CSHADOW
280
     0
  9
$SHADOWPLANELOCATION
 40
0.0
  0
ENDSEC
  0
SECTION
  2
CLASSES
  0
CLASS
  1
ACDBDICTIONARYWDFLT
  2
AcDbDictionaryWithDefault
  3
ObjectDBX Classes
 90
        0
 91
        1
280
     0
281
     0
  0
CLASS
  1
ACDBPLACEHOLDER
  2
AcDbPlaceHolder
  3
ObjectDBX Classes
 90
        0
 91
        1
280
     0
281
     0
  0
CLASS
  1
LAYOUT
  2
AcDbLayout
  3
ObjectDBX Classes
 90
        0
 91
        2
280
     0
281
     0
  0
CLASS
  1
AMGSETTINGSOBJ
  2
AmgSettingsObj
  3
"AcadM|Product Description: AutoCAD Mechanical 2000|Company: Autodesk"
 90
        0
 91
        0
280
     0
281
     0
  0
CLASS
  1
ACME_DOCUMENT
  2
AcMeDbDoc
  3
AcMeServices
 90
        0
 91
        0
280
     0
281
     0
  0
CLASS
  1
ACMESCOPE
  2
AcMeScope
  3
AcMeServices
 90
        0
 91
        0
280
     0
281
     0
  0
CLASS
  1
ACMECOMMANDHISTORY
  2
AcMeCommandHistory
  3
AcMeServices
 90
        0
 91
        0
280
     0
281
     0
  0
CLASS
  1
ACIMSYSVARMAN
  2
AcImSysVarManager
  3
AcMeServices
 90
        0
 91
        0
280
     0
281
     0
  0
CLASS
  1
ACIMREALSYSVAR
  2
AcImRealSysVar
  3
AcMeServices
 90
        0
 91
        0
280
     0
281
     0
  0
CLASS
  1
ACIMINTSYSVAR
  2
AcImIntSysVar
  3
AcMeServices
 90
        0
 91
        0
280
     0
281
     0
  0
CLASS
  1
ACMEDRAWINGMAN
  2
AcMeDrawingMan
  3
AcMeServices
 90
        0
 91
        0
280
     0
281
     0
  0
CLASS
  1
ACMEVIEW
  2
AcMeView
  3
AcMeServices
 90
        0
 91
        0
280
     0
281
     0
  0
CLASS
  1
ACDBENTITYCACHE
  2
AcMeEntityCache
  3
AcMeServices
 90
        0
 91
        0
280
     0
281
     0
  0
CLASS
  1
GSMANAGER
  2
AcMeGSManager
  3
AcMeServices
 90
        0
 91
        0
280
     0
281
     0
  0
CLASS
  1
AMDTINTERNALREACTOR
  2
AmdtInternalReactor
  3
AcMeServices
 90
        0
 91
        0
280
     0
281
     0
  0
CLASS
  1
ACMESTATEMGR
  2
AcMeStateMgr
  3
AcMeServices
 90
        0
 91
        0
280
     0
281
     0
  0
CLASS
  1
ACGREFMASTER
  2
AcGrefMaster
  3
AcAttribServices
 90
        0
 91
        0
280
     0
281
     0
  0
CLASS
  1
AM_DRAWING_MGR
  2
AcDmDwgMgr
  3
AcMechDwgViewMgmt
 90
        0
 91
        0
280
     0
281
     0
  0
CLASS
  1
AM_DWG_DOCUMENT
  2
AcDmDwgDocument
  3
AcMechDwgViewMgmt
 90
        0
 91
        0
280
     0
281
     0
  0
CLASS
  1
AM_DWG_SHEET
  2
AcDmSheet
  3
AcMechDwgViewMgmt
 90
        0
 91
        0
280
     0
281
     0
  0
CLASS
  1
AM_VIEWDIMPARMAP
  2
AcDmViewDimParMap
  3
AcMechDwgViewMgmt
 90
        0
 91
        0
280
     0
281
     0
  0
CLASS
  1
AM_DWGMGR_NAME
  2
AcDmDwgMgrName
  3
AcMechDwgViewMgmt
 90
        0
 91
        0
280
     0
281
     0
  0
CLASS
  1
ACME_DATABASE
  2
AcMeDbDatabase
  3
AcMeServices
 90
        0
 91
        0
280
     0
281
     0
  0
CLASS
  1
ACRFINSADJUSTERMGR
  2
AcRfInsAdjusterMgr
  3
AcMeServices
 90
        0
 91
        0
280
     0
281
     0
  0
CLASS
  1
ACGREFACADMASTER
  2
AcGrefacadMaster
  3
AcGrefServices
 90
        0
 91
        0
280
     0
281
     0
  0
CLASS
  1
AMDTMENUSTATEMGR
  2
AmdtMenuStateMgr
  3
McadcomServices
 90
        0
 91
        0
280
     0
281
     0
  0
CLASS
  1
AMDTMCOMMENUSTATE
  2
AmdtMcomMenuState
  3
McadcomServices
 90
        0
 91
        0
280
     0
281
     0
  0
CLASS
  1
AMIMASTER
  2
AmiMaster
  3
AmiServices
 90
        0
 91
        0
280
     0
281
     0
  0
CLASS
  1
ASAPP
  2
AcAsAppObject
  3
AutoSurfServices
 90
        0
 91
        0
280
     0
281
     0
  0
CLASS
  1
IM_STATIC_MAN
  2
AcImStaticVarManager
  3
AcMeServices
 90
        0
 91
        0
280
     0
281
     0
  0
CLASS
  1
ACIMSTRSYSVAR
  2
AcImStrSysVar
  3
AcMeServices
 90
        0
 91
        0
280
     0
281
     0
  0
CLASS
  1
ACIMDBLSTATICVAR
  2
AcImDblStaticVar
  3
AcMeServices
 90
        0
 91
        0
280
     0
281
     0
  0
CLASS
  1
ACIMSTRSTATICVAR
  2
AcImStrStaticVar
  3
AcMeServices
 90
        0
 91
        0
280
     0
281
     0
  0
CLASS
  1
ACIMINTSTATICVAR
  2
AcImIntStaticVar
  3
AcMeServices
 90
        0
 91
        0
280
     0
281
     0
  0
CLASS
  1
ACASGREFMASTER
  2
AcAsGrefMaster
  3
AutoSurfResolverServices
 90
        0
 91
        0
280
     0
281
     0
  0
CLASS
  1
ACADGREFMODULE
  2
AcAdGrefModule
  3
AdGrefServices
 90
        0
 91
        0
280
     0
281
     0
  0
CLASS
  1
AMDTMAPISURFMOUDULE
  2
AmdtMApiSurfModule
  3
MApiSurfServices
 90
        0
 91
        0
280
     0
281
     0
  0
CLASS
  1
MAPIAMMOUDLE
  2
MApiAmModule
  3
MApiAmServices
 90
        0
 91
        0
280
     0
281
     0
  0
CLASS
  1
AMDTADMENUSTATE
  2
AmdtAdMenuState
  3
DesignerServices
 90
        0
 91
        0
280
     0
281
     0
  0
CLASS
  1
ADAPPL
  2
AcAdAppl
  3
DesignerServices
 90
        0
 91
        0
280
     0
281
     0
  0
CLASS
  1
DEPMGR
  2
AcAdDepMgr
  3
DesignerServices
 90
        0
 91
        0
280
     0
281
     0
  0
CLASS
  1
PARAMMGR
  2
AcAdParamMgr
  3
DesignerServices
 90
        0
 91
        0
280
     0
281
     0
  0
CLASS
  1
PARAMSCOPE
  2
AcAdParamScope
  3
DesignerServices
 90
        0
 91
        0
280
     0
281
     0
  0
CLASS
  1
NAMEDAPPL
  2
AcAdNamedAppl
  3
DesignerServices
 90
        0
 91
        0
280
     0
281
     0
  0
CLASS
  1
AMDTDMMENUSTATE
  2
AmdtDmMenuState
  3
AcMechDwgViewMgmt
 90
        0
 91
        0
280
     0
281
     0
  0
CLASS
  1
MAPIADMODULE
  2
MApiAdModule
  3
MApiAdServices
 90
        0
 91
        0
280
     0
281
     0
  0
CLASS
  1
AMDTAMMENUSTATE
  2
AmdtAmMenuState
  3
DesignerAssemblies
 90
        0
 91
        0
280
     0
281
     0
  0
CLASS
  1
ACAMPROJECT
  2
AcAmProject
  3
DesignerAssemblies
 90
        0
 91
        0
280
     0
281
     0
  0
CLASS
  1
ACAMCOMPDEFMGR
  2
AcAmCompDefMgr
  3
DesignerAssemblies
 90
        0
 91
        0
280
     0
281
     0
  0
CLASS
  1
AMCONTEXTMGR
  2
AcAmContextMgr
  3
DesignerAssemblies
 90
        0
 91
        0
280
     0
281
     0
  0
CLASS
  1
ACAMCONTEXTPARTMODELER
  2
AcAmContextPartModeler
  3
DesignerAssemblies
 90
        0
 91
        0
280
     0
281
     0
  0
CLASS
  1
ACMDATADICTIONARY
  2
AcmDataDictionary
  3
"AcmSymBB|Product Description: AutoCAD Mechanical 2000|Company: Autodesk"
 90
        0
 91
        1
280
     0
281
     0
  0
CLASS
  1
ACMDATAENTRYBLOCK
  2
AcmDataEntryBlock
  3
"AcmSymBB|Product Description: AutoCAD Mechanical 2000|Company: Autodesk"
 90
        0
 91
        1
280
     0
281
     0
  0
CLASS
  1
CATALOGSTATE
  2
AcAmCatalogState
  3
DesignerAssemblies
 90
        0
 91
        0
280
     0
281
     0
  0
CLASS
  1
ACAMGRCOMPDEFSET
  2
AcAmGrCompDefSet
  3
DesignerAssemblies
 90
        0
 91
        0
280
     0
281
     0
  0
CLASS
  1
AMDTBROWSERDBTAB
  2
AmdtBrowserDbTab
  3
McadcomServices
 90
        0
 91
        0
280
     0
281
     0
  0
CLASS
  1
CBROWSERAPPOBJECT
  2
CBrowserAppObject
  3
McadcomServices
 90
        0
 91
        0
280
     0
281
     0
  0
CLASS
  1
DM_PLACEHOLDER
  2
AcDmSelsetPlaceholder
  3
AcMechDwgViewMgmt
 90
        0
 91
        0
280
     0
281
     0
  0
CLASS
  1
ACMSTANDARDANSI
  2
AcmStandardANSI
  3
"Amdt_StdImp|Product Description: AutoCAD Mechanical 2000|Company: Autodesk"
 90
        0
 91
        0
280
     0
281
     0
  0
CLASS
  1
AMGOBJPROPCFG
  2
AmgObjPropCfg
  3
"AmgLay|Product Description: AutoCAD Mechanical 2000|Company: Autodesk"
 90
        1
 91
        0
280
     0
281
     0
  0
CLASS
  1
ACMSURFSTANDARDANSI
  2
AcmSurfTextStdANSI
  3
"Amdt_StdImp|Product Description: AutoCAD Mechanical 2000|Company: Autodesk"
 90
        0
 91
        0
280
     0
281
     0
  0
CLASS
  1
ACMFCFSTANDARDANSI
  2
AcmFCFStdANSI
  3
"Amdt_StdImp|Product Description: AutoCAD Mechanical 2000|Company: Autodesk"
 90
        0
 91
        0
280
     0
281
     0
  0
CLASS
  1
ACMWELDSTANDARDANSI
  2
AcmWeldingStdANSI
  3
"Amdt_StdImp|Product Description: AutoCAD Mechanical 2000|Company: Autodesk"
 90
        0
 91
        0
280
     0
281
     0
  0
CLASS
  1
ACMIDSTANDARDANSI
  2
AcmIdStdANSI
  3
"Amdt_StdImp|Product Description: AutoCAD Mechanical 2000|Company: Autodesk"
 90
        0
 91
        0
280
     0
281
     0
  0
CLASS
  1
ACMDATUMSTANDARDANSI
  2
AcmDatumStdANSI
  3
"Amdt_StdImp|Product Description: AutoCAD Mechanical 2000|Company: Autodesk"
 90
        0
 91
        0
280
     0
281
     0
  0
CLASS
  1
ACMBOMSTANDARDANSI
  2
AcmBOMStdANSI
  3
"Amdt_StdImp|Product Description: AutoCAD Mechanical 2000|Company: Autodesk"
 90
        0
 91
        0
280
     0
281
     0
  0
CLASS
  1
ACMDETAILSTANDARDANSI
  2
AmdtDetailSymStdANSI
  3
"Amdt_StdImp|Product Description: AutoCAD Mechanical 2000|Company: Autodesk"
 90
        0
 91
        0
280
     0
281
     0
  0
CLASS
  1
ACMSECTIONSTANDARDANSI
  2
AmdtSectionSymStdANSI
  3
"Amdt_StdImp|Product Description: AutoCAD Mechanical 2000|Company: Autodesk"
 90
        0
 91
        0
280
     0
281
     0
  0
CLASS
  1
ACMCENTERLINESTANDARDANSI
  2
AmdtCenterLineStdANSI
  3
"Amdt_StdImp|Product Description: AutoCAD Mechanical 2000|Company: Autodesk"
 90
        0
 91
        0
280
     0
281
     0
  0
CLASS
  1
ACMTHREADLINESTANDARDANSI
  2
AmdtThreadLineStdANSI
  3
"Amdt_StdImp|Product Description: AutoCAD Mechanical 2000|Company: Autodesk"
 90
        0
 91
        0
280
     0
281
     0
  0
CLASS
  1
ACMNOTESTANDARDANSI
  2
AmdtNoteStdANSI
  3
"Amdt_StdImp|Product Description: AutoCAD Mechanical 2000|Company: Autodesk"
 90
        0
 91
        0
280
     0
281
     0
  0
CLASS
  1
ACAMGLAYSTD
  2
AcAmgLayStd
  3
"AcAmgLayStd|Product Description: AutoCAD Mechanical 2000|Company: Autodesk"
 90
        0
 91
        0
280
     0
281
     0
  0
CLASS
  1
ACAMGDIMSTD
  2
AcAmgDimStd
  3
"AcAmgDimStd|Product Description: AutoCAD Mechanical 2000|Company: Autodesk"
 90
        0
 91
        0
280
     0
281
     0
  0
CLASS
  1
ACAMGHOLECHARTSTDANSI
  2
AcAmgHoleChartStdANSI
  3
ACMSYMBB_MODULE_NAME
 90
        0
 91
        0
280
     0
281
     0
  0
CLASS
  1
ACAMGTITLESTD
  2
AcAmgTitleStd
  3
"TITLEAPP"
 90
        0
 91
        0
280
     0
281
     0
  0
CLASS
  1
ACAMGFILTERDAT
  2
AcAmgFilterDat
  3
"AcadM|Product Description: AutoCAD Mechanical 2000|Company: Autodesk"
 90
        0
 91
        6
280
     0
281
     0
  0
CLASS
  1
AMDTFORMULAUPDATEDISPATCHER
  2
AmdtFormulaUpdateDispatcher
  3
AcMeServices
 90
        0
 91
        0
280
     0
281
     0
  0
CLASS
  1
LAYER_INDEX
  2
AcDbLayerIndex
  3
ObjectDBX Classes
 90
        0
 91
        1
280
     0
281
     0
  0
CLASS
  1
IDBUFFER
  2
AcDbIdBuffer
  3
ObjectDBX Classes
 90
        0
 91
       19
280
     0
281
     0
  0
CLASS
  1
DICTIONARYVAR
  2
AcDbDictionaryVar
  3
ObjectDBX Classes
 90
        0
 91
        9
280
     0
281
     0
  0
CLASS
  1
DIMASSOC
  2
AcDbDimAssoc
  3
"AcDbDimAssoc|Product Desc:     AcDim ARX App For Dimension|Company:          Autodesk, Inc.|WEB Address:      www.autodesk.com"
 90
        0
 91
        0
280
     0
281
     0
  0
CLASS
  1
MATERIAL
  2
AcDbMaterial
  3
ObjectDBX Classes
 90
     1153
 91
        3
280
     0
281
     0
  0
CLASS
  1
VISUALSTYLE
  2
AcDbVisualStyle
  3
ObjectDBX Classes
 90
     4095
 91
       16
280
     0
281
     0
  0
CLASS
  1
TABLESTYLE
  2
AcDbTableStyle
  3
ObjectDBX Classes
 90
     4095
 91
        1
280
     0
281
     0
  0
CLASS
  1
SCALE
  2
AcDbScale
  3
ObjectDBX Classes
 90
     1153
 91
       33
280
     0
281
     0
  0
CLASS
  1
MLEADERSTYLE
  2
AcDbMLeaderStyle
  3
ACDB_MLEADERSTYLE_CLASS
 90
     4095
 91
        1
280
     0
281
     0
  0
CLASS
  1
SORTENTSTABLE
  2
AcDbSortentsTable
  3
ObjectDBX Classes
 90
        0
 91
        1
280
     0
281
     0
  0
CLASS
  1
CELLSTYLEMAP
  2
AcDbCellStyleMap
  3
ObjectDBX Classes
 90
     1152
 91
        3
280
     0
281
     0
  0
ENDSEC
  0
SECTION
  2
TABLES
  0
TABLE
  2
VPORT
  5
8
102
{ACAD_XDICTIONARY
360
3513
102
}
330
0
100
AcDbSymbolTable
 70
     1
  0
VPORT
  5
1648
330
8
100
AcDbSymbolTableRecord
100
AcDbViewportTableRecord
  2
*Active
 70
     0
 10
0.0
 20
0.0
 11
1.0
 21
1.0
 12
-81.90737513235617
 22
32.48509485544154
 13
0.0
 23
0.0
 14
0.5
 24
0.5
 15
0.5
 25
0.5
 16
0.0
 26
0.0
 36
1.0
 17
6.0
 27
4.603396603396602
 37
0.0
 40
24.83182196231085
 41
1.861861861861861
 42
50.0
 43
0.0
 44
0.0
 50
0.0
 51
0.0
 71
     0
 72
   100
 73
     1
 74
     3
 75
     0
 76
     0
 77
     0
 78
     1
281
     0
 65
     0
110
0.0
120
0.0
130
0.0
111
1.0
121
0.0
131
0.0
112
0.0
122
1.0
132
0.0
 79
     0
146
0.0
348
1669
 60
     3
 61
     5
292
     1
282
     1
141
0.0
142
0.0
 63
   250
421
  3355443
  0
ENDTAB
  0
TABLE
  2
LTYPE
  5
5
330
0
100
AcDbSymbolTable
 70
    16
  0
LTYPE
  5
14
330
5
100
AcDbSymbolTableRecord
100
AcDbLinetypeTableRecord
  2
ByBlock
 70
     0
  3

 72
    65
 73
     0
 40
0.0
  0
LTYPE
  5
15
330
5
100
AcDbSymbolTableRecord
100
AcDbLinetypeTableRecord
  2
ByLayer
 70
     0
  3

 72
    65
 73
     0
 40
0.0
  0
LTYPE
  5
16
330
5
100
AcDbSymbolTableRecord
100
AcDbLinetypeTableRecord
  2
Continuous
 70
     0
  3
Solid line
 72
    65
 73
     0
 40
0.0
  0
LTYPE
  5
52
330
5
100
AcDbSymbolTableRecord
100
AcDbLinetypeTableRecord
  2
HIDDEN
 70
     0
  3
Hidden __ __ __ __ __ __ __ __ __ __ __ __ __ _
 72
    65
 73
     2
 40
0.375
 49
0.25
 74
     0
 49
-0.125
 74
     0
  0
LTYPE
  5
53
330
5
100
AcDbSymbolTableRecord
100
AcDbLinetypeTableRecord
  2
PHANTOM2
 70
     0
  3
Phantom (.5x) ___ _ _ ___ _ _ ___ _ _ ___ _ _
 72
    65
 73
     6
 40
1.25
 49
0.625
 74
     0
 49
-0.125
 74
     0
 49
0.125
 74
     0
 49
-0.125
 74
     0
 49
0.125
 74
     0
 49
-0.125
 74
     0
  0
LTYPE
  5
54
330
5
100
AcDbSymbolTableRecord
100
AcDbLinetypeTableRecord
  2
CENTER
 70
     0
  3
Center ____ _ ____ _ ____ _ ____ _ ____ _ ____
 72
    65
 73
     4
 40
2.0
 49
1.25
 74
     0
 49
-0.25
 74
     0
 49
0.25
 74
     0
 49
-0.25
 74
     0
  0
LTYPE
  5
F8
330
5
100
AcDbSymbolTableRecord
100
AcDbLinetypeTableRecord
  2
Amconstr
 70
     0
  3
_______________________
 72
    65
 73
     2
 40
9999.0
 49
9999.0
 74
     0
 49
0.0
 74
     0
  0
LTYPE
  5
FE
330
5
100
AcDbSymbolTableRecord
100
AcDbLinetypeTableRecord
  2
CENTER2
 70
     0
  3
Center (.5x) ___ _ ___ _ ___ _ ___ _ ___ _ ___
 72
    65
 73
     4
 40
1.125
 49
0.75
 74
     0
 49
-0.125
 74
     0
 49
0.125
 74
     0
 49
-0.125
 74
     0
  0
LTYPE
  5
FF
330
5
100
AcDbSymbolTableRecord
100
AcDbLinetypeTableRecord
  2
HIDDEN2
 70
     0
  3
Hidden (.5x) _ _ _ _ _ _ _ _ _ _ _ _ _ _ _ _ _
 72
    65
 73
     2
 40
0.1875
 49
0.125
 74
     0
 49
-0.0625
 74
     0
  0
LTYPE
  5
100
330
5
100
AcDbSymbolTableRecord
100
AcDbLinetypeTableRecord
  2
Amzigzag2
 70
     0
  3
/\/-/\/-/\/-/\/-/\/-/\/
 72
    65
 73
     2
 40
0.4401
 49
0.0001
 74
     4
 75
   135
340
FC
 46
0.0016
 50
0.0
 44
0.0
 45
0.0
 49
-0.4400000000000003
 74
     0
  0
LTYPE
  5
10E
330
5
100
AcDbSymbolTableRecord
100
AcDbLinetypeTableRecord
  2
ACANSTGB
 70
     0
  3
__ . . __ . .
 72
    65
 73
     6
 40
0.35433070866
 49
0.15748031496
 74
     0
 49
-0.03937007874
 74
     0
 49
0.03937007874
 74
     0
 49
-0.03937007874
 74
     0
 49
0.03937007874
 74
     0
 49
-0.03937007874
 74
     0
  0
LTYPE
  5
10F
330
5
100
AcDbSymbolTableRecord
100
AcDbLinetypeTableRecord
  2
ACANSTGL
 70
     0
  3
_ _ _ _ _
 72
    65
 73
     2
 40
0.11811023622
 49
0.07874015748
 74
     0
 49
-0.03937007874
 74
     0
  0
LTYPE
  5
1537
330
5
100
AcDbSymbolTableRecord
100
AcDbLinetypeTableRecord
  2
ASULTYPE
 70
     0
  3
Solid line
 72
    65
 73
     2
 40
3.0
 49
2.5
 74
     0
 49
0.5
 74
     0
  0
LTYPE
  5
1538
330
5
100
AcDbSymbolTableRecord
100
AcDbLinetypeTableRecord
  2
ASVLTYPE
 70
     0
  3
__ __ __ __ __ __ __ __ __ __ __ __ __ __ __ __ __ __ __ __ __
 72
    65
 73
     2
 40
0.75
 49
0.5
 74
     0
 49
-0.25
 74
     0
  0
LTYPE
  5
35CC
330
5
100
AcDbSymbolTableRecord
100
AcDbLinetypeTableRecord
  2
PHANTOM
 70
     0
  3
Phantom ______  __  __  ______  __  __  ______
 72
    65
 73
     6
 40
0.5
 49
0.25
 74
     0
 49
-0.05
 74
     0
 49
0.05
 74
     0
 49
-0.05
 74
     0
 49
0.05
 74
     0
 49
-0.05
 74
     0
  0
LTYPE
  5
4F23
330
5
100
AcDbSymbolTableRecord
100
AcDbLinetypeTableRecord
  2
DASHED2
 70
     0
  3
Dashed (.5x) _ _ _ _ _ _ _ _ _ _ _ _ _ _ _ _ _
 72
    65
 73
     2
 40
0.375
 49
0.25
 74
     0
 49
-0.125
 74
     0
  0
LTYPE
  5
68D5
330
5
100
AcDbSymbolTableRecord
100
AcDbLinetypeTableRecord
  2
CENTERX2
 70
     0
  3
Center (2x) ________  __  ________  __  _____
 72
    65
 73
     4
 40
0.8
 49
0.5
 74
     0
 49
-0.1
 74
     0
 49
0.1
 74
     0
 49
-0.1
 74
     0
  0
LTYPE
  5
C744
330
5
100
AcDbSymbolTableRecord
100
AcDbLinetypeTableRecord
  2
DASHED
 70
     0
  3
Dashed __ __ __ __ __ __ __ __ __ __ __ __ __ _
 72
    65
 73
     2
 40
0.75
 49
0.5
 74
     0
 49
-0.25
 74
     0
  0
ENDTAB
  0
TABLE
  2
LAYER
  5
2
102
{ACAD_XDICTIONARY
360
120
102
}
330
0
100
AcDbSymbolTable
 70
    19
  0
LAYER
  5
10
102
{ACAD_XDICTIONARY
360
1745
102
}
330
2
100
AcDbSymbolTableRecord
100
AcDbLayerTableRecord
  2
0
 70
     0
 62
     7
  6
Continuous
370
    -3
390
F
347
165B
  0
LAYER
  5
1551
330
2
100
AcDbSymbolTableRecord
100
AcDbLayerTableRecord
  2
Defpoints
 70
     0
 62
     7
  6
Continuous
290
     0
370
    -3
390
F
347
165B
  0
LAYER
  5
172B
102
{ACAD_XDICTIONARY
360
172C
102
}
330
2
100
AcDbSymbolTableRecord
100
AcDbLayerTableRecord
  2
cut
 70
     0
 62
     5
  6
Continuous
370
    -3
390
F
347
165B
  0
LAYER
  5
18FA
330
2
100
AcDbSymbolTableRecord
100
AcDbLayerTableRecord
  2
LIMIT
 70
     0
 62
     1
  6
Continuous
290
     0
370
    -3
390
F
347
165B
  0
LAYER
  5
18FB
330
2
100
AcDbSymbolTableRecord
100
AcDbLayerTableRecord
  2
outline
 70
     0
 62
     3
  6
Continuous
370
    -3
390
F
347
165B
  0
LAYER
  5
29FF
330
2
100
AcDbSymbolTableRecord
100
AcDbLayerTableRecord
  2
3
 70
     0
 62
     7
  6
Continuous
370
    -3
390
F
347
165B
  0
LAYER
  5
2A00
330
2
100
AcDbSymbolTableRecord
100
AcDbLayerTableRecord
  2
7
 70
     0
 62
     7
  6
Continuous
370
    -3
390
F
347
165B
  0
LAYER
  5
2A01
330
2
100
AcDbSymbolTableRecord
100
AcDbLayerTableRecord
  2
AHRS
 70
     0
 62
     7
  6
Continuous
370
    -3
390
F
347
165B
  0
LAYER
  5
4F24
330
2
100
AcDbSymbolTableRecord
100
AcDbLayerTableRecord
  2
OPTREX LCD
 70
     0
 62
     2
  6
Continuous
370
    -3
390
F
347
165B
  0
LAYER
  5
4F25
330
2
100
AcDbSymbolTableRecord
100
AcDbLayerTableRecord
  2
SWITCH
 70
     0
 62
     2
  6
Continuous
370
    -3
390
F
347
165B
  0
LAYER
  5
4F26
330
2
100
AcDbSymbolTableRecord
100
AcDbLayerTableRecord
  2
1
 70
     0
 62
     1
  6
Continuous
370
    -3
390
F
347
165B
  0
LAYER
  5
4F27
330
2
100
AcDbSymbolTableRecord
100
AcDbLayerTableRecord
  2
DIM
 70
     0
 62
   254
  6
Continuous
370
    -3
390
F
347
165B
  0
LAYER
  5
4F28
330
2
100
AcDbSymbolTableRecord
100
AcDbLayerTableRecord
  2
SD Card
 70
     0
 62
     3
  6
Continuous
370
    -3
390
F
347
165B
  0
LAYER
  5
59E2
330
2
100
AcDbSymbolTableRecord
100
AcDbLayerTableRecord
  2
Bezel
 70
     0
 62
     7
  6
Continuous
370
    -3
390
F
347
165B
1001
AcAecLayerStandard
1000

1000

  0
LAYER
  5
7C94
330
2
100
AcDbSymbolTableRecord
100
AcDbLayerTableRecord
  2
6-32 Screw
 70
     0
 62
     7
  6
Continuous
370
    -3
390
F
347
165B
1001
AcAecLayerStandard
1000

1000

  0
LAYER
  5
941F
102
{ACAD_XDICTIONARY
360
9420
102
}
330
2
100
AcDbSymbolTableRecord
100
AcDbLayerTableRecord
  2
CONTROL_PANEL
 70
     0
 62
     7
  6
Continuous
370
    -3
390
F
347
165B
  0
LAYER
  5
9421
102
{ACAD_XDICTIONARY
360
9422
102
}
330
2
100
AcDbSymbolTableRecord
100
AcDbLayerTableRecord
  2
Panel Cut
 70
     0
 62
     5
  6
Continuous
370
    -3
390
F
347
165B
1001
AcAecLayerStandard
1000

1000

  0
LAYER
  5
C73C
330
2
100
AcDbSymbolTableRecord
100
AcDbLayerTableRecord
  2
Laser
 70
     0
 62
     5
  6
Continuous
370
    -3
390
F
347
165B
1001
AcAecLayerStandard
1000

1000

  0
LAYER
  5
C73D
330
2
100
AcDbSymbolTableRecord
100
AcDbLayerTableRecord
  2
Form
 70
     0
 62
     7
  6
Continuous
370
    -3
390
F
347
165B
1001
AcAecLayerStandard
1000

1000

  0
ENDTAB
  0
TABLE
  2
STYLE
  5
3
330
0
100
AcDbSymbolTable
 70
     6
  0
STYLE
  5
11
330
3
100
AcDbSymbolTableRecord
100
AcDbTextStyleTableRecord
  2
Standard
 70
     0
 40
0.0
 41
1.0
 50
0.0
 71
     0
 42
0.2
  3
txt
  4

  0
STYLE
  5
FC
330
3
100
AcDbSymbolTableRecord
100
AcDbTextStyleTableRecord
  2

 70
     1
 40
0.0
 41
1.0
 50
0.0
 71
     0
 42
0.2
  3
ltypeshp.shx
  4

  0
STYLE
  5
101
330
3
100
AcDbSymbolTableRecord
100
AcDbTextStyleTableRecord
  2
ACANSTS
 70
     0
 40
1.0
 41
1.0
 50
0.0
 71
     0
 42
0.2
  3
romans.shx
  4

  0
STYLE
  5
10D
330
3
100
AcDbSymbolTableRecord
100
AcDbTextStyleTableRecord
  2
ACANSGDT
 70
     0
 40
0.0
 41
1.0
 50
0.0
 71
     0
 42
0.2
  3
amgdtans.shx
  4

  0
STYLE
  5
125
330
3
100
AcDbSymbolTableRecord
100
AcDbTextStyleTableRecord
  2
ADESK1
 70
     0
 40
0.09375
 41
1.0
 50
0.0
 71
     0
 42
0.09375
  3
romans.shx
  4

  0
STYLE
  5
68D6
330
3
100
AcDbSymbolTableRecord
100
AcDbTextStyleTableRecord
  2
SLDTEXTSTYLE0
 70
     0
 40
0.0
 41
0.75
 50
0.0
 71
     0
 42
0.2
  3
TXT
  4

  0
ENDTAB
  0
TABLE
  2
VIEW
  5
6
330
0
100
AcDbSymbolTable
 70
     0
  0
ENDTAB
  0
TABLE
  2
UCS
  5
7
330
0
100
AcDbSymbolTable
 70
     0
  0
ENDTAB
  0
TABLE
  2
APPID
  5
9
330
0
100
AcDbSymbolTable
 70
    18
  0
APPID
  5
12
330
9
100
AcDbSymbolTableRecord
100
AcDbRegAppTableRecord
  2
ACAD
 70
     0
  0
APPID
  5
2E
330
9
100
AcDbSymbolTableRecord
100
AcDbRegAppTableRecord
  2
GENIUS_GENDIM_13
 70
     0
  0
APPID
  5
2F
330
9
100
AcDbSymbolTableRecord
100
AcDbRegAppTableRecord
  2
GENIUS_GENDTOL_13
 70
     0
  0
APPID
  5
30
330
9
100
AcDbSymbolTableRecord
100
AcDbRegAppTableRecord
  2
GENIUS_GE3DTOL_13
 70
     0
  0
APPID
  5
33
330
9
100
AcDbSymbolTableRecord
100
AcDbRegAppTableRecord
  2
MCAD_NO_VIS
 70
     0
  0
APPID
  5
34
330
9
100
AcDbSymbolTableRecord
100
AcDbRegAppTableRecord
  2
ACAD_TEMP_GRAPHIC
 70
     0
  0
APPID
  5
69
330
9
100
AcDbSymbolTableRecord
100
AcDbRegAppTableRecord
  2
AD_DRAW
 70
     0
  0
APPID
  5
6C
330
9
100
AcDbSymbolTableRecord
100
AcDbRegAppTableRecord
  2
ACATTRIBSERVICES
 70
     0
  0
APPID
  5
B8
330
9
100
AcDbSymbolTableRecord
100
AcDbRegAppTableRecord
  2
ASURF_PCURVE_APPNAME
 70
     0
  0
APPID
  5
BD
330
9
100
AcDbSymbolTableRecord
100
AcDbRegAppTableRecord
  2
AMG_3D2D_5.0
 70
     0
  0
APPID
  5
E2
330
9
100
AcDbSymbolTableRecord
100
AcDbRegAppTableRecord
  2
DESIGNERASSEMBLIES
 70
     0
  0
APPID
  5
EA
330
9
100
AcDbSymbolTableRecord
100
AcDbRegAppTableRecord
  2
ACADM_DIM_EDIT
 70
     0
  0
APPID
  5
EB
330
9
100
AcDbSymbolTableRecord
100
AcDbRegAppTableRecord
  2
AMDT_DM_ADJ
 70
     0
  0
APPID
  5
169B
330
9
100
AcDbSymbolTableRecord
100
AcDbRegAppTableRecord
  2
ACAD_MLEADERVER
 70
     0
  0
APPID
  5
1A24
330
9
100
AcDbSymbolTableRecord
100
AcDbRegAppTableRecord
  2
ACAD_EXEMPT_FROM_CAD_STANDARDS
 70
     0
  0
APPID
  5
59E3
330
9
100
AcDbSymbolTableRecord
100
AcDbRegAppTableRecord
  2
AcAecLayerStandard
 70
     0
  0
APPID
  5
68DA
330
9
100
AcDbSymbolTableRecord
100
AcDbRegAppTableRecord
  2
ACAD_PSEXT
 70
     0
  0
APPID
  5
7C81
330
9
100
AcDbSymbolTableRecord
100
AcDbRegAppTableRecord
  2
ACAD_DSTYLE_DIMRADIAL_EXTENSION
 70
     0
  0
ENDTAB
  0
TABLE
  2
DIMSTYLE
  5
A
330
0
100
AcDbSymbolTable
 70
    11
100
AcDbDimStyleTable
 71
     2
340
113
340
11C
  0
DIMSTYLE
105
113
330
A
100
AcDbSymbolTableRecord
100
AcDbDimStyleTableRecord
  2
AM_ANSI
 70
     0
  4
mm
 41
0.1
 42
0.05
 43
0.5
 44
0.1
 47
0.1
 48
0.1
 78
     7
 79
     2
140
0.12
141
0.0
146
0.71
147
0.06
176
     4
177
     4
178
   256
179
     1
271
     3
272
     3
284
     7
340
125
371
    -1
372
    -1
  0
DIMSTYLE
105
114
330
A
100
AcDbSymbolTableRecord
100
AcDbDimStyleTableRecord
  2
AM_ANSI$3
 70
     0
  4
mm
 41
0.1
 42
0.05
 43
0.5
 44
0.1
 47
0.1
 48
0.1
 78
     7
 79
     2
140
0.12
141
0.0
146
0.71
147
0.06
176
     4
177
     4
178
   256
179
     1
271
     3
272
     3
284
     7
288
     1
289
     0
340
125
371
    -1
372
    -1
  0
DIMSTYLE
105
115
330
A
100
AcDbSymbolTableRecord
100
AcDbDimStyleTableRecord
  2
AM_ANSI$4
 70
     0
  4
mm
 41
0.1
 42
0.05
 43
0.5
 44
0.1
 47
0.1
 48
0.1
 78
     7
 79
     2
140
0.12
141
0.0
146
0.71
147
0.06
176
     4
177
     4
178
   256
179
     1
271
     3
272
     3
284
     7
288
     1
289
     0
340
125
371
    -1
372
    -1
  0
DIMSTYLE
105
116
330
A
100
AcDbSymbolTableRecord
100
AcDbDimStyleTableRecord
  2
AM_ANSI$7
 70
     0
  4
mm
 41
0.1
 42
0.05
 43
0.5
 44
0.1
 47
0.1
 48
0.1
 78
     7
 79
     2
140
0.24
141
0.0
146
0.71
147
0.06
176
     4
177
     4
178
   256
179
     1
271
     3
272
     3
284
     7
340
125
371
    -1
372
    -1
  0
DIMSTYLE
105
117
330
A
100
AcDbSymbolTableRecord
100
AcDbDimStyleTableRecord
  2
AM_ANSI$SF
 70
     0
  4
mm
 41
0.1
 42
0.05
 43
0.5
 44
0.1
 47
0.1
 48
0.1
 75
     1
 76
     1
 78
     7
 79
     2
140
0.12
141
0.0
146
0.71
147
0.06
176
   256
177
   256
178
     2
274
     4
284
     7
340
11
371
    -1
372
    -1
  0
DIMSTYLE
105
11C
330
A
100
AcDbSymbolTableRecord
100
AcDbDimStyleTableRecord
  2
AM_ANSI$SH
 70
     0
  4
mm
 41
0.1
 42
0.05
 43
0.5
 44
0.1
 47
0.1
 48
0.1
 75
     1
 76
     1
 78
     7
 79
     2
140
0.12
141
0.0
146
0.71
147
0.06
173
     1
176
   256
177
   256
178
     2
274
     4
284
     7
340
11
341
118
343
118
371
    -1
372
    -1
  0
DIMSTYLE
105
208
330
A
100
AcDbSymbolTableRecord
100
AcDbDimStyleTableRecord
  2
Standard
 70
     0
340
11
  0
DIMSTYLE
105
68D7
330
A
100
AcDbSymbolTableRecord
100
AcDbDimStyleTableRecord
  2
SLDDIMSTYLE0
 70
     0
 41
0.13
 44
0.0
 45
0.000000001
 78
    12
140
0.125
147
0.03125
173
     1
276
     2
277
     5
284
    12
340
68D6
  0
DIMSTYLE
105
68D8
330
A
100
AcDbSymbolTableRecord
100
AcDbDimStyleTableRecord
  2
SLDDIMSTYLE1
 70
     0
 41
0.13
 44
0.0
 45
0.000000001
 78
    12
140
0.125
141
0.0
147
0.03125
173
     1
276
     2
277
     5
284
    12
340
68D6
  0
DIMSTYLE
105
68D9
330
A
100
AcDbSymbolTableRecord
100
AcDbDimStyleTableRecord
  2
SLDDIMSTYLE2
 70
     0
 41
0.13
 44
0.0
 45
0.000000001
 78
     4
140
0.125
147
0.03125
173
     1
276
     2
277
     5
284
    12
340
68D6
  0
DIMSTYLE
105
9423
330
A
100
AcDbSymbolTableRecord
100
AcDbDimStyleTableRecord
  2
STANDARD$0
 70
     0
 41
0.1
 42
0.06
140
0.045
271
     3
340
11
  0
ENDTAB
  0
TABLE
  2
BLOCK_RECORD
  5
1
330
0
100
AcDbSymbolTable
 70
    68
  0
BLOCK_RECORD
  5
1F
102
{ACAD_XDICTIONARY
360
153
102
}
330
1
100
AcDbSymbolTableRecord
100
AcDbBlockTableRecord
  2
*Model_Space
340
22
 70
     0
280
     1
281
     0
  0
BLOCK_RECORD
  5
182
330
1
100
AcDbSymbolTableRecord
100
AcDbBlockTableRecord
  2
*Paper_Space
340
183
 70
     0
280
     1
281
     0
  0
BLOCK_RECORD
  5
118
330
1
100
AcDbSymbolTableRecord
100
AcDbBlockTableRecord
  2
GENAXEH
340
0
 70
     0
280
     1
281
     0
  0
BLOCK_RECORD
  5
1592
330
1
100
AcDbSymbolTableRecord
100
AcDbBlockTableRecord
  2
af3500
340
0
310
2800000020000000200000000100080000000000000400000000000000000000000000000000000000000000000080000080000000808000800000008000800080800000C0C0C000C0DCC000F0CAA6000020400000206000002080000020A0000020C0000020E00000400000004020000040400000406000004080000040A0
310
000040C0000040E00000600000006020000060400000606000006080000060A0000060C0000060E00000800000008020000080400000806000008080000080A0000080C0000080E00000A0000000A0200000A0400000A0600000A0800000A0A00000A0C00000A0E00000C0000000C0200000C0400000C0600000C0800000C0
310
A00000C0C00000C0E00000E0000000E0200000E0400000E0600000E0800000E0A00000E0C00000E0E00040000000400020004000400040006000400080004000A0004000C0004000E00040200000402020004020400040206000402080004020A0004020C0004020E000404000004040200040404000404060004040800040
310
40A0004040C0004040E00040600000406020004060400040606000406080004060A0004060C0004060E00040800000408020004080400040806000408080004080A0004080C0004080E00040A0000040A0200040A0400040A0600040A0800040A0A00040A0C00040A0E00040C0000040C0200040C0400040C0600040C08000
310
40C0A00040C0C00040C0E00040E0000040E0200040E0400040E0600040E0800040E0A00040E0C00040E0E00080000000800020008000400080006000800080008000A0008000C0008000E00080200000802020008020400080206000802080008020A0008020C0008020E00080400000804020008040400080406000804080
310
008040A0008040C0008040E00080600000806020008060400080606000806080008060A0008060C0008060E00080800000808020008080400080806000808080008080A0008080C0008080E00080A0000080A0200080A0400080A0600080A0800080A0A00080A0C00080A0E00080C0000080C0200080C0400080C0600080C0
310
800080C0A00080C0C00080C0E00080E0000080E0200080E0400080E0600080E0800080E0A00080E0C00080E0E000C0000000C0002000C0004000C0006000C0008000C000A000C000C000C000E000C0200000C0202000C0204000C0206000C0208000C020A000C020C000C020E000C0400000C0402000C0404000C0406000C0
310
408000C040A000C040C000C040E000C0600000C0602000C0604000C0606000C0608000C060A000C060C000C060E000C0800000C0802000C0804000C0806000C0808000C080A000C080C000C080E000C0A00000C0A02000C0A04000C0A06000C0A08000C0A0A000C0A0C000C0A0E000C0C00000C0C02000C0C04000C0C06000
310
C0C08000C0C0A000F0FBFF00A4A0A000808080000000FF0000FF000000FFFF00FF000000FF00FF00FFFF0000FFFFFF0000000000000000000000000000000000000000000000000000000000000000000000000000000000000000000000000000000000000000000000000000000000000000000000000000000000000000
310
0000000000000000000000000000000000000000000000000000000000000000000000000000000000000000000000000000FFFFFFFFFFFFFFFFFFFFFFFFFFFFFFFFFFFFFFFFFFFFFFFFFFFFFFFFFFFF0000FFFF000000FFFF0000FFFF00FFFF0000FFFF00FFFF0000FF00000000FFFF0000FFFF0000000000000000000000
310
000000000000000000000000000000FFFF0000FFFFFFFFFFFFFFFFFFFFFFFFFFFFFFFFFFFFFFFFFFFFFFFFFFFFFFFFFFFF0000FFFFFFFF00000000000000000000000000000000000000000000FFFFFFFF0000FFFFFFFF00000000000000000000000000000000000000000000FFFFFFFF0000FFFFFFFF0000000000000000
310
0000000000000000000000000000FFFFFFFF0000FFFFFFFF00000000000000000000000000000000000000000000FFFFFFFF0000FFFFFFFF00000000000000000000000000000000000000000000FFFFFFFF0000FFFFFFFF00000000000000000000000000000000000000000000FFFFFFFF0000FFFFFFFF00000000000000
310
000000000000000000000000000000FFFFFFFF0000FFFFFFFF00000000000000000000000000000000000000000000FFFFFFFF0000FFFFFFFF00000000000000000000000000000000000000000000FFFFFFFF0000FFFFFFFF00000000000000000000000000000000000000000000FFFFFFFF0000FFFFFFFF000000000000
310
00000000000000000000000000000000FFFFFFFF0000FFFFFFFF00000000000000000000000000000000000000000000FFFFFFFF0000FFFFFFFF00000000000000000000000000000000000000000000FFFFFFFF0000FFFFFFFF00000000000000000000000000000000000000000000FFFFFFFF0000FFFFFFFF0000000000
310
0000000000000000000000000000000000FFFFFFFF0000FFFFFFFF00000000000000000000000000000000000000000000FFFFFFFF0000FFFFFFFF00000000000000000000000000000000000000000000FFFFFFFF0000FFFFFFFFFFFFFFFFFFFFFFFFFFFFFFFFFFFFFFFFFFFFFFFFFFFFFFFFFFFF0000FFFF000000000000
310
0000000000000000000000000000000000000000FFFF0000FFFFFFFFFFFFFFFFFFFFFFFFFFFFFFFFFFFFFFFFFFFFFFFFFFFFFFFFFFFF00000000000000000000000000000000000000000000000000000000000000000000000000000000000000000000000000000000000000000000000000000000000000000000000000
310
0000000000000000000000000000000000000000000000000000000000000000000000000000000000000000000000000000000000000000
102
{BLKREFS
331
1633
102
}
 70
     0
280
     1
281
     0
  0
BLOCK_RECORD
  5
15E2
330
1
100
AcDbSymbolTableRecord
100
AcDbBlockTableRecord
  2
AF-3600
340
0
310
2800000020000000200000000100080000000000000400000000000000000000000000000000000000000000000080000080000000808000800000008000800080800000C0C0C000C0DCC000F0CAA6000020400000206000002080000020A0000020C0000020E00000400000004020000040400000406000004080000040A0
310
000040C0000040E00000600000006020000060400000606000006080000060A0000060C0000060E00000800000008020000080400000806000008080000080A0000080C0000080E00000A0000000A0200000A0400000A0600000A0800000A0A00000A0C00000A0E00000C0000000C0200000C0400000C0600000C0800000C0
310
A00000C0C00000C0E00000E0000000E0200000E0400000E0600000E0800000E0A00000E0C00000E0E00040000000400020004000400040006000400080004000A0004000C0004000E00040200000402020004020400040206000402080004020A0004020C0004020E000404000004040200040404000404060004040800040
310
40A0004040C0004040E00040600000406020004060400040606000406080004060A0004060C0004060E00040800000408020004080400040806000408080004080A0004080C0004080E00040A0000040A0200040A0400040A0600040A0800040A0A00040A0C00040A0E00040C0000040C0200040C0400040C0600040C08000
310
40C0A00040C0C00040C0E00040E0000040E0200040E0400040E0600040E0800040E0A00040E0C00040E0E00080000000800020008000400080006000800080008000A0008000C0008000E00080200000802020008020400080206000802080008020A0008020C0008020E00080400000804020008040400080406000804080
310
008040A0008040C0008040E00080600000806020008060400080606000806080008060A0008060C0008060E00080800000808020008080400080806000808080008080A0008080C0008080E00080A0000080A0200080A0400080A0600080A0800080A0A00080A0C00080A0E00080C0000080C0200080C0400080C0600080C0
310
800080C0A00080C0C00080C0E00080E0000080E0200080E0400080E0600080E0800080E0A00080E0C00080E0E000C0000000C0002000C0004000C0006000C0008000C000A000C000C000C000E000C0200000C0202000C0204000C0206000C0208000C020A000C020C000C020E000C0400000C0402000C0404000C0406000C0
310
408000C040A000C040C000C040E000C0600000C0602000C0604000C0606000C0608000C060A000C060C000C060E000C0800000C0802000C0804000C0806000C0808000C080A000C080C000C080E000C0A00000C0A02000C0A04000C0A06000C0A08000C0A0A000C0A0C000C0A0E000C0C00000C0C02000C0C04000C0C06000
310
C0C08000C0C0A000F0FBFF00A4A0A000808080000000FF0000FF000000FFFF00FF000000FF00FF00FFFF0000FFFFFF0000000000000000000000000000000000000000000000000000000000000000000000000000000000000000000000000000000000000000000000000000000000000000000000000000000000000000
310
000000000000000000000000000000000000FFFFFFFFFFFFFFFFFFFFFFFFFFFFFFFFFFFFFFFFFFFFFFFFFFFFFFFFFFFF0000FFFFFFFFFFFFFFFFFFFFFFFFFFFFFFFFFFFFFFFFFFFFFFFFFFFFFFFFFFFF0000FF00FF0000FFFF0000FFFF00FFFF0000FFFF00FFFF00FF00000000FF00FF0000FF00FF0000FFFF0000FFFF00FF
310
FF0000FFFF00FFFF000000000000FF00FF0000FF00FF000000000000000000000000000000000000000000000000FF00FF0000FF00FFFFFFFFFFFFFFFFFFFFFFFFFFFFFFFFFFFFFFFFFFFFFFFFFFFF00FF0000FF00FFFF00000000000000000000000000000000000000000000FFFF00FF0000FF00FFFF0000000000000000
310
0000000000000000000000000000FFFF00FF0000FF00FFFF00000000000000000000000000000000000000000000FFFF00FF0000FF00FFFF00000000000000000000000000000000000000000000FFFF00FF0000FF00FFFF00000000000000000000000000000000000000000000FFFF00FF0000FF00FFFF00000000000000
310
000000000000000000000000000000FFFF00FF0000FF00FFFF00000000000000000000000000000000000000000000FFFF00FF0000FF00FFFF00000000000000000000000000000000000000000000FFFF00FF0000FF00FFFF00000000000000000000000000000000000000000000FFFF00FF0000FF00FFFF000000000000
310
00000000000000000000000000000000FFFF00FF0000FF00FFFF00000000000000000000000000000000000000000000FFFF00FF0000FF00FFFF00000000000000000000000000000000000000000000FFFF00FF0000FF00FFFF00000000000000000000000000000000000000000000FFFF00FF0000FF00FFFF0000000000
310
0000000000000000000000000000000000FFFF00FF0000FF00FFFF00000000000000000000000000000000000000000000FFFF00FF0000FF00FFFF00000000000000000000000000000000000000000000FFFF00FF0000FF00FFFFFFFFFFFFFFFFFFFFFFFFFFFFFFFFFFFFFFFFFFFFFFFFFFFF00FF0000FF00FF0000000000
310
00000000000000000000000000000000000000FF00FF0000FFFFFFFFFFFFFFFFFFFFFFFFFFFFFFFFFFFFFFFFFFFFFFFFFFFFFFFFFFFF0000FFFFFFFFFFFFFFFFFFFFFFFFFFFFFFFFFFFFFFFFFFFFFFFFFFFFFFFFFFFF0000000000000000000000000000000000000000000000000000000000000000000000000000000000
310
0000000000000000000000000000000000000000000000000000000000000000000000000000000000000000000000000000000000000000
 70
     0
280
     1
281
     0
  0
BLOCK_RECORD
  5
1632
330
1
100
AcDbSymbolTableRecord
100
AcDbBlockTableRecord
  2
AF-3800
340
0
310
2800000020000000200000000100080000000000000400000000000000000000000000000000000000000000000080000080000000808000800000008000800080800000C0C0C000C0DCC000F0CAA6000020400000206000002080000020A0000020C0000020E00000400000004020000040400000406000004080000040A0
310
000040C0000040E00000600000006020000060400000606000006080000060A0000060C0000060E00000800000008020000080400000806000008080000080A0000080C0000080E00000A0000000A0200000A0400000A0600000A0800000A0A00000A0C00000A0E00000C0000000C0200000C0400000C0600000C0800000C0
310
A00000C0C00000C0E00000E0000000E0200000E0400000E0600000E0800000E0A00000E0C00000E0E00040000000400020004000400040006000400080004000A0004000C0004000E00040200000402020004020400040206000402080004020A0004020C0004020E000404000004040200040404000404060004040800040
310
40A0004040C0004040E00040600000406020004060400040606000406080004060A0004060C0004060E00040800000408020004080400040806000408080004080A0004080C0004080E00040A0000040A0200040A0400040A0600040A0800040A0A00040A0C00040A0E00040C0000040C0200040C0400040C0600040C08000
310
40C0A00040C0C00040C0E00040E0000040E0200040E0400040E0600040E0800040E0A00040E0C00040E0E00080000000800020008000400080006000800080008000A0008000C0008000E00080200000802020008020400080206000802080008020A0008020C0008020E00080400000804020008040400080406000804080
310
008040A0008040C0008040E00080600000806020008060400080606000806080008060A0008060C0008060E00080800000808020008080400080806000808080008080A0008080C0008080E00080A0000080A0200080A0400080A0600080A0800080A0A00080A0C00080A0E00080C0000080C0200080C0400080C0600080C0
310
800080C0A00080C0C00080C0E00080E0000080E0200080E0400080E0600080E0800080E0A00080E0C00080E0E000C0000000C0002000C0004000C0006000C0008000C000A000C000C000C000E000C0200000C0202000C0204000C0206000C0208000C020A000C020C000C020E000C0400000C0402000C0404000C0406000C0
310
408000C040A000C040C000C040E000C0600000C0602000C0604000C0606000C0608000C060A000C060C000C060E000C0800000C0802000C0804000C0806000C0808000C080A000C080C000C080E000C0A00000C0A02000C0A04000C0A06000C0A08000C0A0A000C0A0C000C0A0E000C0C00000C0C02000C0C04000C0C06000
310
C0C08000C0C0A000F0FBFF00A4A0A000808080000000FF0000FF000000FFFF00FF000000FF00FF00FFFF0000FFFFFF0000000000000000000000000000000000000000000000000000000000000000000000000000000000000000000000000000000000000000000000000000000000000000000000000000000000000000
310
0000000000000000000000000000000000000000000000000000000000000000000000000000000000000000000000000000FFFFFFFFFFFFFFFFFFFFFFFFFFFFFFFFFFFFFFFFFFFFFFFFFFFFFFFFFFFF0000FFFF000000FFFF0000FFFF00FFFF0000FFFF00FFFF0000FF00000000FFFF0000FFFF0000000000000000000000
310
000000000000000000000000000000FFFF0000FFFFFFFFFFFFFFFFFFFFFFFFFFFFFFFFFFFFFFFFFFFFFFFFFFFFFFFFFFFF0000FFFFFFFF00000000000000000000000000000000000000000000FFFFFFFF0000FFFFFFFF00000000000000000000000000000000000000000000FFFFFFFF0000FFFFFFFF0000000000000000
310
0000000000000000000000000000FFFFFFFF0000FFFFFFFF00000000000000000000000000000000000000000000FFFFFFFF0000FFFFFFFF00000000000000000000000000000000000000000000FFFFFFFF0000FFFFFFFF00000000000000000000000000000000000000000000FFFFFFFF0000FFFFFFFF00000000000000
310
000000000000000000000000000000FFFFFFFF0000FFFFFFFF00000000000000000000000000000000000000000000FFFFFFFF0000FFFFFFFF00000000000000000000000000000000000000000000FFFFFFFF0000FFFFFFFF00000000000000000000000000000000000000000000FFFFFFFF0000FFFFFFFF000000000000
310
00000000000000000000000000000000FFFFFFFF0000FFFFFFFF00000000000000000000000000000000000000000000FFFFFFFF0000FFFFFFFF00000000000000000000000000000000000000000000FFFFFFFF0000FFFFFFFF00000000000000000000000000000000000000000000FFFFFFFF0000FFFFFFFF0000000000
310
0000000000000000000000000000000000FFFFFFFF0000FFFFFFFF00000000000000000000000000000000000000000000FFFFFFFF0000FFFFFFFF00000000000000000000000000000000000000000000FFFFFFFF0000FFFFFFFFFFFFFFFFFFFFFFFFFFFFFFFFFFFFFFFFFFFFFFFFFFFFFFFFFFFF0000FFFF000000000000
310
0000000000000000000000000000000000000000FFFF0000FFFFFFFFFFFFFFFFFFFFFFFFFFFFFFFFFFFFFFFFFFFFFFFFFFFFFFFFFFFF00000000000000000000000000000000000000000000000000000000000000000000000000000000000000000000000000000000000000000000000000000000000000000000000000
310
0000000000000000000000000000000000000000000000000000000000000000000000000000000000000000000000000000000000000000
 70
     0
280
     1
281
     0
  0
BLOCK_RECORD
  5
16A2
330
1
100
AcDbSymbolTableRecord
100
AcDbBlockTableRecord
  2
SW_CENTERMARKSYMBOL_0
340
0
102
{BLKREFS
331
1726
102
}
 70
     0
280
     1
281
     0
  0
BLOCK_RECORD
  5
16AD
330
1
100
AcDbSymbolTableRecord
100
AcDbBlockTableRecord
  2
SW_CENTERMARKSYMBOL_1
340
0
102
{BLKREFS
331
1727
102
}
 70
     0
280
     1
281
     0
  0
BLOCK_RECORD
  5
16B8
330
1
100
AcDbSymbolTableRecord
100
AcDbBlockTableRecord
  2
SW_CENTERMARKSYMBOL_2
340
0
102
{BLKREFS
331
1728
102
}
 70
     0
280
     1
281
     0
  0
BLOCK_RECORD
  5
16C3
330
1
100
AcDbSymbolTableRecord
100
AcDbBlockTableRecord
  2
SW_CENTERMARKSYMBOL_3
340
0
102
{BLKREFS
331
1729
102
}
 70
     0
280
     1
281
     0
  0
BLOCK_RECORD
  5
16CE
330
1
100
AcDbSymbolTableRecord
100
AcDbBlockTableRecord
  2
AF-4500
340
0
310
2800000020000000200000000100080000000000000400000000000000000000000000000000000000000000000080000080000000808000800000008000800080800000C0C0C000C0DCC000F0CAA6000020400000206000002080000020A0000020C0000020E00000400000004020000040400000406000004080000040A0
310
000040C0000040E00000600000006020000060400000606000006080000060A0000060C0000060E00000800000008020000080400000806000008080000080A0000080C0000080E00000A0000000A0200000A0400000A0600000A0800000A0A00000A0C00000A0E00000C0000000C0200000C0400000C0600000C0800000C0
310
A00000C0C00000C0E00000E0000000E0200000E0400000E0600000E0800000E0A00000E0C00000E0E00040000000400020004000400040006000400080004000A0004000C0004000E00040200000402020004020400040206000402080004020A0004020C0004020E000404000004040200040404000404060004040800040
310
40A0004040C0004040E00040600000406020004060400040606000406080004060A0004060C0004060E00040800000408020004080400040806000408080004080A0004080C0004080E00040A0000040A0200040A0400040A0600040A0800040A0A00040A0C00040A0E00040C0000040C0200040C0400040C0600040C08000
310
40C0A00040C0C00040C0E00040E0000040E0200040E0400040E0600040E0800040E0A00040E0C00040E0E00080000000800020008000400080006000800080008000A0008000C0008000E00080200000802020008020400080206000802080008020A0008020C0008020E00080400000804020008040400080406000804080
310
008040A0008040C0008040E00080600000806020008060400080606000806080008060A0008060C0008060E00080800000808020008080400080806000808080008080A0008080C0008080E00080A0000080A0200080A0400080A0600080A0800080A0A00080A0C00080A0E00080C0000080C0200080C0400080C0600080C0
310
800080C0A00080C0C00080C0E00080E0000080E0200080E0400080E0600080E0800080E0A00080E0C00080E0E000C0000000C0002000C0004000C0006000C0008000C000A000C000C000C000E000C0200000C0202000C0204000C0206000C0208000C020A000C020C000C020E000C0400000C0402000C0404000C0406000C0
310
408000C040A000C040C000C040E000C0600000C0602000C0604000C0606000C0608000C060A000C060C000C060E000C0800000C0802000C0804000C0806000C0808000C080A000C080C000C080E000C0A00000C0A02000C0A04000C0A06000C0A08000C0A0A000C0A0C000C0A0E000C0C00000C0C02000C0C04000C0C06000
310
C0C08000C0C0A000F0FBFF00A4A0A000808080000000FF0000FF000000FFFF00FF000000FF00FF00FFFF0000FFFFFF0000000000000000000000000000000000000000000000000000000000000000000000000000000000000000000000000000000000000000000000000000000000000000000000000000000000000000
310
000000000000000000000000000000000000FFFFFFFFFFFFFFFFFFFFFFFFFFFFFFFFFFFFFFFFFFFFFFFFFFFFFFFFFFFF0000FFFF00FFFF0000000000000000000000000000000000000000000000FFFF0000FFFF0000FFFF000000000000000000000000000000000000FF000000FFFF0000FFFF0000FFFFFF00FFFF00FFFF
310
00FFFF00FFFF00FFFF00FFFFFFFF00FFFF0000FFFF000000FF000000000000000000000000000000000000FF000000FFFF0000FFFF0000FFFFFFFFFFFFFFFFFFFFFFFFFFFFFFFFFFFFFFFFFFFF0000FFFF0000FFFF00FF00000000000000000000000000000000000000000000FF00FFFF0000FFFF00FF0000000000000000
310
0000000000000000000000000000FF00FFFF0000FFFF00FF00000000000000000000000000000000000000000000FF00FFFF0000FFFF00FF00000000000000000000000000000000000000000000FF00FFFF0000FFFF00FF00000000000000000000000000000000000000000000FF00FFFF0000FFFF00FF00000000000000
310
000000000000000000000000000000FF00FFFF0000FFFF00FF00000000000000000000000000000000000000000000FF00FFFF0000FFFF00FF00000000000000000000000000000000000000000000FF00FFFF0000FFFF00FF00000000000000000000000000000000000000000000FF00FFFF0000FFFF00FF000000000000
310
00000000000000000000000000000000FF00FFFF0000FFFF00FF00000000000000000000000000000000000000000000FF00FFFF0000FFFF00FF00000000000000000000000000000000000000000000FF00FFFF0000FFFF00FF00000000000000000000000000000000000000000000FF00FFFF0000FFFF00FF0000000000
310
0000000000000000000000000000000000FF00FFFF0000FFFF00FF00000000000000000000000000000000000000000000FF00FFFF0000FFFF00FF00000000000000000000000000000000000000000000FF00FFFF0000FFFF00FFFFFFFFFFFFFFFFFFFFFFFFFFFFFFFFFFFFFFFFFFFFFFFF00FFFF0000FFFF000000000000
310
0000000000000000000000000000000000FF0000FFFF0000FFFF000000FFFFFFFF00000000000000000000000000000000FFFF00FFFF0000FFFFFFFFFFFFFFFFFFFFFFFFFFFFFFFFFFFFFFFFFFFFFFFFFFFFFFFFFFFF0000000000000000000000000000000000000000000000000000000000000000000000000000000000
310
0000000000000000000000000000000000000000000000000000000000000000000000000000000000000000000000000000000000000000
 70
     0
280
     1
281
     0
  0
BLOCK_RECORD
  5
1759
330
1
100
AcDbSymbolTableRecord
100
AcDbBlockTableRecord
  2
AOAPRO
340
0
310
2800000020000000200000000100080000000000000400000000000000000000000000000000000000000000000080000080000000808000800000008000800080800000C0C0C000C0DCC000F0CAA6000020400000206000002080000020A0000020C0000020E00000400000004020000040400000406000004080000040A0
310
000040C0000040E00000600000006020000060400000606000006080000060A0000060C0000060E00000800000008020000080400000806000008080000080A0000080C0000080E00000A0000000A0200000A0400000A0600000A0800000A0A00000A0C00000A0E00000C0000000C0200000C0400000C0600000C0800000C0
310
A00000C0C00000C0E00000E0000000E0200000E0400000E0600000E0800000E0A00000E0C00000E0E00040000000400020004000400040006000400080004000A0004000C0004000E00040200000402020004020400040206000402080004020A0004020C0004020E000404000004040200040404000404060004040800040
310
40A0004040C0004040E00040600000406020004060400040606000406080004060A0004060C0004060E00040800000408020004080400040806000408080004080A0004080C0004080E00040A0000040A0200040A0400040A0600040A0800040A0A00040A0C00040A0E00040C0000040C0200040C0400040C0600040C08000
310
40C0A00040C0C00040C0E00040E0000040E0200040E0400040E0600040E0800040E0A00040E0C00040E0E00080000000800020008000400080006000800080008000A0008000C0008000E00080200000802020008020400080206000802080008020A0008020C0008020E00080400000804020008040400080406000804080
310
008040A0008040C0008040E00080600000806020008060400080606000806080008060A0008060C0008060E00080800000808020008080400080806000808080008080A0008080C0008080E00080A0000080A0200080A0400080A0600080A0800080A0A00080A0C00080A0E00080C0000080C0200080C0400080C0600080C0
310
800080C0A00080C0C00080C0E00080E0000080E0200080E0400080E0600080E0800080E0A00080E0C00080E0E000C0000000C0002000C0004000C0006000C0008000C000A000C000C000C000E000C0200000C0202000C0204000C0206000C0208000C020A000C020C000C020E000C0400000C0402000C0404000C0406000C0
310
408000C040A000C040C000C040E000C0600000C0602000C0604000C0606000C0608000C060A000C060C000C060E000C0800000C0802000C0804000C0806000C0808000C080A000C080C000C080E000C0A00000C0A02000C0A04000C0A06000C0A08000C0A0A000C0A0C000C0A0E000C0C00000C0C02000C0C04000C0C06000
310
C0C08000C0C0A000F0FBFF00A4A0A000808080000000FF0000FF000000FFFF00FF000000FF00FF00FFFF0000FFFFFF00000000000000000000000000000000000000000000000000000000000000000000000000000000000000000000000000000000000000000000000000000000000000000000000000FF00FFFFFFFFFF
310
FFFFFFFFFFFFFF000000FF000000000000000000000000000000FF000000000000000000000000FF000000000000000000000000000000000000FF000000000000000000000000FF000000000000000000000000000000000000FF000000000000000000000000FF000000000000000000000000000000000000FF00000000
310
0000000000000000FF000000000000000000000000000000000000FF000000000000000000000000FF000000000000000000000000000000000000FF000000000000000000000000FF000000000000000000000000000000000000FF000000000000000000000000FF000000000000000000000000000000000000FF000000
310
000000000000000000FF000000000000000000000000000000000000FF000000000000000000000000FF000000000000000000000000000000000000FF000000000000000000000000FF000000000000000000000000000000000000FF000000000000000000000000FF000000000000000000000000000000000000FF0000
310
00000000000000000000FF000000000000000000000000000000000000FF000000000000000000000000FF000000000000000000000000000000000000FF000000000000000000000000FF000000000000000000000000000000000000FF000000000000000000000000FF000000000000000000000000000000000000FF00
310
0000000000000000000000FF000000000000000000000000000000000000FF000000000000000000000000FF000000000000000000000000000000000000FF000000000000000000000000FF000000000000000000000000000000000000FF000000000000000000000000FF000000000000000000000000000000000000FF
310
000000000000000000000000FF000000000000000000000000000000000000FF000000000000000000000000FF000000000000000000000000000000000000FF000000000000000000000000FF000000000000000000000000000000000000FF000000000000000000000000FF000000000000000000000000000000000000
310
FF000000000000000000000000FF000000000000000000000000000000000000FF000000000000000000000000FF000000000000000000000000000000000000FF000000000000000000000000FF0000000000000000000000000000000000FF00FFFFFFFFFFFFFFFFFFFFFFFF000000FF0000000000000000000000000000
310
0000000000000000000000000000000000000000000000000000000000000000000000000000000000000000000000000000000000000000
 70
     0
280
     1
281
     0
  0
BLOCK_RECORD
  5
1768
330
1
100
AcDbSymbolTableRecord
100
AcDbBlockTableRecord
  2
KEYSWITCH
340
0
310
2800000020000000200000000100080000000000000400000000000000000000000000000000000000000000000080000080000000808000800000008000800080800000C0C0C000C0DCC000F0CAA6000020400000206000002080000020A0000020C0000020E00000400000004020000040400000406000004080000040A0
310
000040C0000040E00000600000006020000060400000606000006080000060A0000060C0000060E00000800000008020000080400000806000008080000080A0000080C0000080E00000A0000000A0200000A0400000A0600000A0800000A0A00000A0C00000A0E00000C0000000C0200000C0400000C0600000C0800000C0
310
A00000C0C00000C0E00000E0000000E0200000E0400000E0600000E0800000E0A00000E0C00000E0E00040000000400020004000400040006000400080004000A0004000C0004000E00040200000402020004020400040206000402080004020A0004020C0004020E000404000004040200040404000404060004040800040
310
40A0004040C0004040E00040600000406020004060400040606000406080004060A0004060C0004060E00040800000408020004080400040806000408080004080A0004080C0004080E00040A0000040A0200040A0400040A0600040A0800040A0A00040A0C00040A0E00040C0000040C0200040C0400040C0600040C08000
310
40C0A00040C0C00040C0E00040E0000040E0200040E0400040E0600040E0800040E0A00040E0C00040E0E00080000000800020008000400080006000800080008000A0008000C0008000E00080200000802020008020400080206000802080008020A0008020C0008020E00080400000804020008040400080406000804080
310
008040A0008040C0008040E00080600000806020008060400080606000806080008060A0008060C0008060E00080800000808020008080400080806000808080008080A0008080C0008080E00080A0000080A0200080A0400080A0600080A0800080A0A00080A0C00080A0E00080C0000080C0200080C0400080C0600080C0
310
800080C0A00080C0C00080C0E00080E0000080E0200080E0400080E0600080E0800080E0A00080E0C00080E0E000C0000000C0002000C0004000C0006000C0008000C000A000C000C000C000E000C0200000C0202000C0204000C0206000C0208000C020A000C020C000C020E000C0400000C0402000C0404000C0406000C0
310
408000C040A000C040C000C040E000C0600000C0602000C0604000C0606000C0608000C060A000C060C000C060E000C0800000C0802000C0804000C0806000C0808000C080A000C080C000C080E000C0A00000C0A02000C0A04000C0A06000C0A08000C0A0A000C0A0C000C0A0E000C0C00000C0C02000C0C04000C0C06000
310
C0C08000C0C0A000F0FBFF00A4A0A000808080000000FF0000FF000000FFFF00FF000000FF00FF00FFFF0000FFFFFF0000000000000000000000000000000000000000000000000000000000000000000000000000000000000000000000000000000000000000000000000000000000000000000000000000000000FFFFFF
310
FFFF00000000000000000000000000000000000000000000000000FFFF0000000000FFFFFFFFFFFF000000000000000000000000000000000000FF00000000000000000000000000FF000000000000000000000000000000FFFF000000000000000000000000000000FF00000000000000000000000000FF00000000000000
310
0000000000000000000000FF00000000000000000000FFFF0000000000000000000000000000000000000000FF0000000000000000FFFF000000000000000000000000000000000000000000FF00000000000000000000FFFF0000000000000000000000000000000000000000FF00000000000000000000FF000000000000
310
000000000000000000000000000000FF000000000000000000FF00000000000000000000000000000000000000000000FF00000000FFFF00FF0000000000000000000000000000000000000000000000FF00000000FF00FFFF0000000000000000000000000000000000000000000000FF00000000FF000000000000000000
310
0000000000000000000000000000000000FF00000000FF0000000000000000000000000000000000000000000000000000FF00000000FF0000000000000000000000000000000000000000000000000000FF00000000FF00000000000000000000000000000000000000000000000000FF000000000000FF00000000000000
310
0000000000000000000000000000000000FF000000000000FF000000000000000000000000000000000000000000000000FF000000000000FF000000000000000000000000000000000000000000000000FF000000000000FF000000000000000000000000000000000000000000000000FF000000000000FF000000000000
310
0000000000000000000000000000000000FF0000000000000000FF000000000000000000000000000000000000000000FF00000000000000000000FF00000000000000000000000000000000000000FF000000000000000000000000FFFF00000000000000000000000000000000FF000000000000000000000000000000FF
310
0000000000000000000000000000FF0000000000000000000000000000000000FF000000000000000000000000FF00000000000000000000000000000000000000FF000000000000FFFFFFFFFF000000000000000000000000000000000000000000FFFFFFFFFFFF0000000000000000000000000000000000000000000000
310
0000000000000000000000000000000000000000000000000000000000000000000000000000000000000000000000000000000000000000
 70
     0
280
     1
281
     0
  0
BLOCK_RECORD
  5
176F
330
1
100
AcDbSymbolTableRecord
100
AcDbBlockTableRecord
  2
MASTERSWITCH
340
0
310
2800000020000000200000000100080000000000000400000000000000000000000000000000000000000000000080000080000000808000800000008000800080800000C0C0C000C0DCC000F0CAA6000020400000206000002080000020A0000020C0000020E00000400000004020000040400000406000004080000040A0
310
000040C0000040E00000600000006020000060400000606000006080000060A0000060C0000060E00000800000008020000080400000806000008080000080A0000080C0000080E00000A0000000A0200000A0400000A0600000A0800000A0A00000A0C00000A0E00000C0000000C0200000C0400000C0600000C0800000C0
310
A00000C0C00000C0E00000E0000000E0200000E0400000E0600000E0800000E0A00000E0C00000E0E00040000000400020004000400040006000400080004000A0004000C0004000E00040200000402020004020400040206000402080004020A0004020C0004020E000404000004040200040404000404060004040800040
310
40A0004040C0004040E00040600000406020004060400040606000406080004060A0004060C0004060E00040800000408020004080400040806000408080004080A0004080C0004080E00040A0000040A0200040A0400040A0600040A0800040A0A00040A0C00040A0E00040C0000040C0200040C0400040C0600040C08000
310
40C0A00040C0C00040C0E00040E0000040E0200040E0400040E0600040E0800040E0A00040E0C00040E0E00080000000800020008000400080006000800080008000A0008000C0008000E00080200000802020008020400080206000802080008020A0008020C0008020E00080400000804020008040400080406000804080
310
008040A0008040C0008040E00080600000806020008060400080606000806080008060A0008060C0008060E00080800000808020008080400080806000808080008080A0008080C0008080E00080A0000080A0200080A0400080A0600080A0800080A0A00080A0C00080A0E00080C0000080C0200080C0400080C0600080C0
310
800080C0A00080C0C00080C0E00080E0000080E0200080E0400080E0600080E0800080E0A00080E0C00080E0E000C0000000C0002000C0004000C0006000C0008000C000A000C000C000C000E000C0200000C0202000C0204000C0206000C0208000C020A000C020C000C020E000C0400000C0402000C0404000C0406000C0
310
408000C040A000C040C000C040E000C0600000C0602000C0604000C0606000C0608000C060A000C060C000C060E000C0800000C0802000C0804000C0806000C0808000C080A000C080C000C080E000C0A00000C0A02000C0A04000C0A06000C0A08000C0A0A000C0A0C000C0A0E000C0C00000C0C02000C0C04000C0C06000
310
C0C08000C0C0A000F0FBFF00A4A0A000808080000000FF0000FF000000FFFF00FF000000FF00FF00FFFF0000FFFFFF0000000000000000000000000000000000000000000000000000000000000000000000000000000000FFFFFFFFFFFFFFFFFFFFFFFFFFFFFFFF00000000000000000000000000000000FF000000000000
310
0000000000000000FF00000000000000000000000000000000FF0000000000000000000000000000FF00000000000000000000000000000000FF0000000000000000000000000000FF00000000000000000000000000000000FF0000000000000000000000000000FF00000000000000000000000000000000FF0000000000
310
000000000000000000FF00000000000000000000000000000000FF0000000000000000000000000000FF00000000000000000000000000000000FF0000000000000000000000000000FF00000000000000000000000000000000FF0000000000000000000000000000FF00000000000000000000000000000000FF00000000
310
00000000000000000000FF00000000000000000000000000000000FF0000000000000000000000000000FF00000000000000000000000000000000FF0000000000000000000000000000FF00000000000000000000000000000000FF0000000000000000000000000000FF00000000000000000000000000000000FF000000
310
0000000000000000000000FF00000000000000000000000000000000FF0000000000000000000000000000FF00000000000000000000000000000000FF0000000000000000000000000000FF00000000000000000000000000000000FF0000000000000000000000000000FF00000000000000000000000000000000FF0000
310
000000000000000000000000FF00000000000000000000000000000000FF0000000000000000000000000000FF00000000000000000000000000000000FF0000000000000000000000000000FF00000000000000000000000000000000FF0000000000000000000000000000FF00000000000000000000000000000000FF00
310
00000000000000000000000000FF00000000000000000000000000000000FF0000000000000000000000000000FF00000000000000000000000000000000FF0000000000000000000000000000FF00000000000000000000000000000000FF0000000000000000000000000000FF00000000000000000000000000000000FF
310
0000000000000000000000000000FF00000000000000000000000000000000FF0000000000000000000000000000FF00000000000000000000000000000000FF0000000000000000000000000000FF00000000000000000000000000000000FF0000000000000000000000000000FF00000000000000000000000000000000
310
FFFFFFFFFFFFFFFFFFFFFFFFFFFFFFFF00000000000000000000000000000000000000000000000000000000000000000000000000000000
 70
     0
280
     1
281
     0
  0
BLOCK_RECORD
  5
1773
330
1
100
AcDbSymbolTableRecord
100
AcDbBlockTableRecord
  2
Switch
340
0
310
2800000020000000200000000100080000000000000400000000000000000000000000000000000000000000000080000080000000808000800000008000800080800000C0C0C000C0DCC000F0CAA6000020400000206000002080000020A0000020C0000020E00000400000004020000040400000406000004080000040A0
310
000040C0000040E00000600000006020000060400000606000006080000060A0000060C0000060E00000800000008020000080400000806000008080000080A0000080C0000080E00000A0000000A0200000A0400000A0600000A0800000A0A00000A0C00000A0E00000C0000000C0200000C0400000C0600000C0800000C0
310
A00000C0C00000C0E00000E0000000E0200000E0400000E0600000E0800000E0A00000E0C00000E0E00040000000400020004000400040006000400080004000A0004000C0004000E00040200000402020004020400040206000402080004020A0004020C0004020E000404000004040200040404000404060004040800040
310
40A0004040C0004040E00040600000406020004060400040606000406080004060A0004060C0004060E00040800000408020004080400040806000408080004080A0004080C0004080E00040A0000040A0200040A0400040A0600040A0800040A0A00040A0C00040A0E00040C0000040C0200040C0400040C0600040C08000
310
40C0A00040C0C00040C0E00040E0000040E0200040E0400040E0600040E0800040E0A00040E0C00040E0E00080000000800020008000400080006000800080008000A0008000C0008000E00080200000802020008020400080206000802080008020A0008020C0008020E00080400000804020008040400080406000804080
310
008040A0008040C0008040E00080600000806020008060400080606000806080008060A0008060C0008060E00080800000808020008080400080806000808080008080A0008080C0008080E00080A0000080A0200080A0400080A0600080A0800080A0A00080A0C00080A0E00080C0000080C0200080C0400080C0600080C0
310
800080C0A00080C0C00080C0E00080E0000080E0200080E0400080E0600080E0800080E0A00080E0C00080E0E000C0000000C0002000C0004000C0006000C0008000C000A000C000C000C000E000C0200000C0202000C0204000C0206000C0208000C020A000C020C000C020E000C0400000C0402000C0404000C0406000C0
310
408000C040A000C040C000C040E000C0600000C0602000C0604000C0606000C0608000C060A000C060C000C060E000C0800000C0802000C0804000C0806000C0808000C080A000C080C000C080E000C0A00000C0A02000C0A04000C0A06000C0A08000C0A0A000C0A0C000C0A0E000C0C00000C0C02000C0C04000C0C06000
310
C0C08000C0C0A000F0FBFF00A4A0A000808080000000FF0000FF000000FFFF00FF000000FF00FF00FFFF0000FFFFFF000000000000000000000000000000000000000000000000000000000000000000000000000000FFFFFFFFFFFFFFFFFFFFFFFFFFFFFFFFFFFFFFFF000000000000000000000000FF0000000000000000
310
00000000000000000000FF000000000000000000000000FF000000000000000000000000000000000000FF000000000000000000000000FF000000000000000000000000000000000000FF000000000000000000000000FF000000000000000000000000000000000000FF000000000000000000000000FF00000000000000
310
0000000000000000000000FF000000000000000000000000FF000000000000000000000000000000000000FF000000000000000000000000FF000000000000000000000000000000000000FF000000000000000000000000FF000000000000000000000000000000000000FF000000000000000000000000FF000000000000
310
000000000000000000000000FF000000000000000000000000FF000000000000000000000000000000000000FF000000000000000000000000FF000000000000000000000000000000000000FF000000000000000000000000FF000000000000000000000000000000000000FF000000000000000000000000FF0000000000
310
00000000000000000000000000FF000000000000000000000000FF000000000000000000000000000000000000FF000000000000000000000000FF000000000000000000000000000000000000FF000000000000000000000000FF000000000000000000000000000000000000FF000000000000000000000000FF00000000
310
0000000000000000000000000000FF000000000000000000000000FF000000000000000000000000000000000000FF000000000000000000000000FF000000000000000000000000000000000000FF000000000000000000000000FF000000000000000000000000000000000000FF000000000000000000000000FF000000
310
000000000000000000000000000000FF000000000000000000000000FF000000000000000000000000000000000000FF000000000000000000000000FF000000000000000000000000000000000000FF000000000000000000000000FF000000000000000000000000000000000000FF000000000000000000000000FF0000
310
00000000000000000000000000000000FF000000000000000000000000FF000000000000000000000000000000000000FF000000000000000000000000FF000000000000000000000000000000000000FF000000000000000000000000FF000000000000000000000000000000000000FF000000000000000000000000FFFF
310
FFFFFFFFFFFFFFFFFFFFFFFFFFFFFFFFFFFF0000000000000000000000000000000000000000000000000000000000000000000000000000
102
{BLKREFS
331
50CB
102
}
 70
     0
280
     1
281
     0
  0
BLOCK_RECORD
  5
1777
330
1
100
AcDbSymbolTableRecord
100
AcDbBlockTableRecord
  2
OXYGEN
340
0
310
2800000020000000200000000100080000000000000400000000000000000000000000000000000000000000000080000080000000808000800000008000800080800000C0C0C000C0DCC000F0CAA6000020400000206000002080000020A0000020C0000020E00000400000004020000040400000406000004080000040A0
310
000040C0000040E00000600000006020000060400000606000006080000060A0000060C0000060E00000800000008020000080400000806000008080000080A0000080C0000080E00000A0000000A0200000A0400000A0600000A0800000A0A00000A0C00000A0E00000C0000000C0200000C0400000C0600000C0800000C0
310
A00000C0C00000C0E00000E0000000E0200000E0400000E0600000E0800000E0A00000E0C00000E0E00040000000400020004000400040006000400080004000A0004000C0004000E00040200000402020004020400040206000402080004020A0004020C0004020E000404000004040200040404000404060004040800040
310
40A0004040C0004040E00040600000406020004060400040606000406080004060A0004060C0004060E00040800000408020004080400040806000408080004080A0004080C0004080E00040A0000040A0200040A0400040A0600040A0800040A0A00040A0C00040A0E00040C0000040C0200040C0400040C0600040C08000
310
40C0A00040C0C00040C0E00040E0000040E0200040E0400040E0600040E0800040E0A00040E0C00040E0E00080000000800020008000400080006000800080008000A0008000C0008000E00080200000802020008020400080206000802080008020A0008020C0008020E00080400000804020008040400080406000804080
310
008040A0008040C0008040E00080600000806020008060400080606000806080008060A0008060C0008060E00080800000808020008080400080806000808080008080A0008080C0008080E00080A0000080A0200080A0400080A0600080A0800080A0A00080A0C00080A0E00080C0000080C0200080C0400080C0600080C0
310
800080C0A00080C0C00080C0E00080E0000080E0200080E0400080E0600080E0800080E0A00080E0C00080E0E000C0000000C0002000C0004000C0006000C0008000C000A000C000C000C000E000C0200000C0202000C0204000C0206000C0208000C020A000C020C000C020E000C0400000C0402000C0404000C0406000C0
310
408000C040A000C040C000C040E000C0600000C0602000C0604000C0606000C0608000C060A000C060C000C060E000C0800000C0802000C0804000C0806000C0808000C080A000C080C000C080E000C0A00000C0A02000C0A04000C0A06000C0A08000C0A0A000C0A0C000C0A0E000C0C00000C0C02000C0C04000C0C06000
310
C0C08000C0C0A000F0FBFF00A4A0A000808080000000FF0000FF000000FFFF00FF000000FF00FF00FFFF0000FFFFFF000000000000000000000000000000000000000000000000000000000000000000000000000000000000FFFFFFFFFFFFFFFFFFFFFFFFFFFF00000000000000000000000000000000FFFF000000000000
310
0000000000000000FF0000FF000000000000000000000000FF00000000000000000000000000000000FF00000000000000000000000000FF000000000000000000000000000000000000FF0000000000000000000000FF0000000000000000000000000000000000000000FF00000000000000000000FF0000000000000000
310
000000000000000000000000FF00000000000000000000FF0000000000000000000000000000000000000000FF00000000000000000000FF0000000000000000000000000000000000000000FF00000000000000000000FF0000000000000000000000000000000000000000FF00000000000000000000FF00000000000000
310
00000000000000000000000000FF00000000000000000000FF0000000000000000000000000000000000000000FF00000000000000000000FF0000000000000000000000000000000000000000FF00000000000000000000FF0000000000000000000000000000000000000000FF00000000000000000000FF000000000000
310
0000000000000000000000000000FF00000000000000000000FF0000000000000000000000000000000000000000FF00000000000000000000FF0000000000000000000000000000000000000000FF00000000000000000000FF0000000000000000000000000000000000000000FF00000000000000000000FF0000000000
310
000000000000000000000000000000FF00000000000000000000FF0000000000000000000000000000000000000000FF00000000000000000000FF0000000000000000000000000000000000000000FF00000000000000000000FF0000000000000000000000000000000000000000FF00000000000000000000FF00000000
310
00000000000000000000000000000000FF00000000000000000000FF0000000000000000000000000000000000000000FF00000000000000000000FF0000000000000000000000000000000000000000FF00000000000000000000FF0000000000000000000000000000000000000000FF00000000000000000000FF000000
310
0000000000000000000000000000000000FF0000000000000000000000FF000000000000000000000000000000000000FF00000000000000000000000000FF00000000000000000000000000000000FF0000000000000000000000000000FFFF0000000000000000000000000000FF0000FF00000000000000000000000000
310
00FFFFFFFFFFFFFFFFFFFFFFFFFFFF0000000000000000000000000000000000000000000000000000000000000000000000000000000000
 70
     0
280
     1
281
     0
  0
BLOCK_RECORD
  5
1790
330
1
100
AcDbSymbolTableRecord
100
AcDbBlockTableRecord
  2
CO_GARD
340
0
310
2800000020000000200000000100080000000000000400000000000000000000000000000000000000000000000080000080000000808000800000008000800080800000C0C0C000C0DCC000F0CAA6000020400000206000002080000020A0000020C0000020E00000400000004020000040400000406000004080000040A0
310
000040C0000040E00000600000006020000060400000606000006080000060A0000060C0000060E00000800000008020000080400000806000008080000080A0000080C0000080E00000A0000000A0200000A0400000A0600000A0800000A0A00000A0C00000A0E00000C0000000C0200000C0400000C0600000C0800000C0
310
A00000C0C00000C0E00000E0000000E0200000E0400000E0600000E0800000E0A00000E0C00000E0E00040000000400020004000400040006000400080004000A0004000C0004000E00040200000402020004020400040206000402080004020A0004020C0004020E000404000004040200040404000404060004040800040
310
40A0004040C0004040E00040600000406020004060400040606000406080004060A0004060C0004060E00040800000408020004080400040806000408080004080A0004080C0004080E00040A0000040A0200040A0400040A0600040A0800040A0A00040A0C00040A0E00040C0000040C0200040C0400040C0600040C08000
310
40C0A00040C0C00040C0E00040E0000040E0200040E0400040E0600040E0800040E0A00040E0C00040E0E00080000000800020008000400080006000800080008000A0008000C0008000E00080200000802020008020400080206000802080008020A0008020C0008020E00080400000804020008040400080406000804080
310
008040A0008040C0008040E00080600000806020008060400080606000806080008060A0008060C0008060E00080800000808020008080400080806000808080008080A0008080C0008080E00080A0000080A0200080A0400080A0600080A0800080A0A00080A0C00080A0E00080C0000080C0200080C0400080C0600080C0
310
800080C0A00080C0C00080C0E00080E0000080E0200080E0400080E0600080E0800080E0A00080E0C00080E0E000C0000000C0002000C0004000C0006000C0008000C000A000C000C000C000E000C0200000C0202000C0204000C0206000C0208000C020A000C020C000C020E000C0400000C0402000C0404000C0406000C0
310
408000C040A000C040C000C040E000C0600000C0602000C0604000C0606000C0608000C060A000C060C000C060E000C0800000C0802000C0804000C0806000C0808000C080A000C080C000C080E000C0A00000C0A02000C0A04000C0A06000C0A08000C0A0A000C0A0C000C0A0E000C0C00000C0C02000C0C04000C0C06000
310
C0C08000C0C0A000F0FBFF00A4A0A000808080000000FF0000FF000000FFFF00FF000000FF00FF00FFFF0000FFFFFF00000000000000000000000000000000000000000000000000000000000000000000000000000000000000000000000000000000000000000000000000000000000000000000FF000000000000000000
310
00000000000000000000000000000000000000000000FFFFFF0000000000000000000000000000000000000000000000000000000000FF0000FFFF000000000000000000000000000000000000000000000000000000FF00FFFF00000000000000000000000000000000000000000000000000000000FFFF00000000000000
310
000000000000000000000000000000000000000000000000000000000000000000000000000000000000000000000000000000000000000000000000000000000000000000FF0000000000000000000000000000000000000000000000000000000000FF00000000FF00000000000000000000000000000000000000000000
310
00000000000000000000000000000000000000000000000000000000000000000000000000000000000000000000000000000000000000000000000000000000000000FF0000FF000000FF00000000000000000000000000000000000000000000000000000000000000000000000000000000000000000000000000000000
310
0000000000FF00000000FF00000000000000000000000000000000000000000000000000000000FF000000000000000000000000000000000000000000000000000000000000000000000000000000000000000000000000000000000000000000000000000000000000000000000000000000000000000000000000000000
310
00000000000000000000000000000000000000000000000000000000000000000000000000000000000000000000000000000000000000000000000000000000000000000000000000000000000000000000000000000000000000000000000000000000000000000000000000000000000000000000000000000000000000
310
00000000000000000000000000000000000000000000000000000000000000000000000000000000000000000000000000000000000000000000000000000000000000000000000000000000000000000000000000000000000000FF0000000000000000000000000000000000FF00000000000000000000000000FFFFFF00
310
0000000000000000000000000000FFFFFF0000000000000000000000FF0000FFFF00000000000000000000000000FF0000FFFF000000000000000000FF00FFFF0000000000000000000000000000FF00FFFF00000000000000000000FFFF00000000000000000000000000000000FFFF000000000000000000000000000000
310
0000000000000000000000000000000000000000000000000000000000000000000000000000000000000000000000000000000000000000
 70
     0
280
     1
281
     0
  0
BLOCK_RECORD
  5
179F
330
1
100
AcDbSymbolTableRecord
100
AcDbBlockTableRecord
  2
ELT
340
0
310
2800000020000000200000000100080000000000000400000000000000000000000000000000000000000000000080000080000000808000800000008000800080800000C0C0C000C0DCC000F0CAA6000020400000206000002080000020A0000020C0000020E00000400000004020000040400000406000004080000040A0
310
000040C0000040E00000600000006020000060400000606000006080000060A0000060C0000060E00000800000008020000080400000806000008080000080A0000080C0000080E00000A0000000A0200000A0400000A0600000A0800000A0A00000A0C00000A0E00000C0000000C0200000C0400000C0600000C0800000C0
310
A00000C0C00000C0E00000E0000000E0200000E0400000E0600000E0800000E0A00000E0C00000E0E00040000000400020004000400040006000400080004000A0004000C0004000E00040200000402020004020400040206000402080004020A0004020C0004020E000404000004040200040404000404060004040800040
310
40A0004040C0004040E00040600000406020004060400040606000406080004060A0004060C0004060E00040800000408020004080400040806000408080004080A0004080C0004080E00040A0000040A0200040A0400040A0600040A0800040A0A00040A0C00040A0E00040C0000040C0200040C0400040C0600040C08000
310
40C0A00040C0C00040C0E00040E0000040E0200040E0400040E0600040E0800040E0A00040E0C00040E0E00080000000800020008000400080006000800080008000A0008000C0008000E00080200000802020008020400080206000802080008020A0008020C0008020E00080400000804020008040400080406000804080
310
008040A0008040C0008040E00080600000806020008060400080606000806080008060A0008060C0008060E00080800000808020008080400080806000808080008080A0008080C0008080E00080A0000080A0200080A0400080A0600080A0800080A0A00080A0C00080A0E00080C0000080C0200080C0400080C0600080C0
310
800080C0A00080C0C00080C0E00080E0000080E0200080E0400080E0600080E0800080E0A00080E0C00080E0E000C0000000C0002000C0004000C0006000C0008000C000A000C000C000C000E000C0200000C0202000C0204000C0206000C0208000C020A000C020C000C020E000C0400000C0402000C0404000C0406000C0
310
408000C040A000C040C000C040E000C0600000C0602000C0604000C0606000C0608000C060A000C060C000C060E000C0800000C0802000C0804000C0806000C0808000C080A000C080C000C080E000C0A00000C0A02000C0A04000C0A06000C0A08000C0A0A000C0A0C000C0A0E000C0C00000C0C02000C0C04000C0C06000
310
C0C08000C0C0A000F0FBFF00A4A0A000808080000000FF0000FF000000FFFF00FF000000FF00FF00FFFF0000FFFFFF0000000000000000000000000000000000000000000000000000000000000000000000000000000000000000000000000000000000000000000000000000000000000000000000000000000000000000
310
000000000000000000000000000000000000000000000000FFFFFF000000000000000000000000FFFFFF0000000000000000000000000000000000000000000000000000000000000000000000000000000000000000000000FFFFFFFFFFFFFFFFFFFFFFFFFFFFFFFFFF000000000000000000000000000000FF0000000000
310
00000000000000000000FF000000000000000000000000000000FF000000000000000000000000000000FF000000000000000000000000000000FF000000000000000000000000000000FF000000000000000000000000000000FF000000000000000000000000000000FF000000000000000000000000000000FF00000000
310
0000000000000000000000FF000000000000000000000000000000FF000000000000000000000000000000FF000000000000000000000000000000FF000000000000000000000000000000FF000000000000000000000000000000FF000000000000000000000000000000FF000000000000000000000000000000FF000000
310
000000000000000000000000FF000000000000000000000000000000FF000000000000000000000000000000FF000000000000000000000000000000FF000000000000000000000000000000FF000000000000000000000000000000FF000000000000000000000000000000FF000000000000000000000000000000FF0000
310
00000000000000000000000000FF000000000000000000000000000000FF000000000000000000000000000000FF000000000000000000000000000000FF000000000000000000000000000000FF000000000000000000000000000000FF000000000000000000000000000000FF000000000000000000000000000000FF00
310
0000000000000000000000000000FF000000000000000000000000000000FF000000000000000000000000000000FF000000000000000000000000000000FF000000000000000000000000000000FF000000000000000000000000000000FF000000000000000000000000000000FF000000000000000000000000000000FF
310
FFFFFFFFFFFFFFFFFFFFFFFFFFFFFFFF00000000000000000000000000000000000000000000000000000000000000000000000000000000000000000000FFFFFF000000000000000000000000FFFFFF0000000000000000000000000000000000000000000000000000000000000000000000000000000000000000000000
310
0000000000000000000000000000000000000000000000000000000000000000000000000000000000000000000000000000000000000000
 70
     0
280
     1
281
     0
  0
BLOCK_RECORD
  5
18D5
330
1
100
AcDbSymbolTableRecord
100
AcDbBlockTableRecord
  2
496
340
0
 70
     1
280
     1
281
     0
  0
BLOCK_RECORD
  5
18DD
330
1
100
AcDbSymbolTableRecord
100
AcDbBlockTableRecord
  2
pma8000
340
0
 70
     1
280
     1
281
     0
  0
BLOCK_RECORD
  5
18E5
330
1
100
AcDbSymbolTableRecord
100
AcDbBlockTableRecord
  2
430W
340
0
 70
     1
280
     1
281
     0
  0
BLOCK_RECORD
  5
18EA
330
1
100
AcDbSymbolTableRecord
100
AcDbBlockTableRecord
  2
sl30
340
0
 70
     1
280
     1
281
     0
  0
BLOCK_RECORD
  5
18F2
330
1
100
AcDbSymbolTableRecord
100
AcDbBlockTableRecord
  2
gtx330
340
0
 70
     1
280
     1
281
     0
  0
BLOCK_RECORD
  5
1972
330
1
100
AcDbSymbolTableRecord
100
AcDbBlockTableRecord
  2
AF-3400
340
0
310
2800000020000000200000000100080000000000000400000000000000000000000000000000000000000000000080000080000000808000800000008000800080800000C0C0C000C0DCC000F0CAA6000020400000206000002080000020A0000020C0000020E00000400000004020000040400000406000004080000040A0
310
000040C0000040E00000600000006020000060400000606000006080000060A0000060C0000060E00000800000008020000080400000806000008080000080A0000080C0000080E00000A0000000A0200000A0400000A0600000A0800000A0A00000A0C00000A0E00000C0000000C0200000C0400000C0600000C0800000C0
310
A00000C0C00000C0E00000E0000000E0200000E0400000E0600000E0800000E0A00000E0C00000E0E00040000000400020004000400040006000400080004000A0004000C0004000E00040200000402020004020400040206000402080004020A0004020C0004020E000404000004040200040404000404060004040800040
310
40A0004040C0004040E00040600000406020004060400040606000406080004060A0004060C0004060E00040800000408020004080400040806000408080004080A0004080C0004080E00040A0000040A0200040A0400040A0600040A0800040A0A00040A0C00040A0E00040C0000040C0200040C0400040C0600040C08000
310
40C0A00040C0C00040C0E00040E0000040E0200040E0400040E0600040E0800040E0A00040E0C00040E0E00080000000800020008000400080006000800080008000A0008000C0008000E00080200000802020008020400080206000802080008020A0008020C0008020E00080400000804020008040400080406000804080
310
008040A0008040C0008040E00080600000806020008060400080606000806080008060A0008060C0008060E00080800000808020008080400080806000808080008080A0008080C0008080E00080A0000080A0200080A0400080A0600080A0800080A0A00080A0C00080A0E00080C0000080C0200080C0400080C0600080C0
310
800080C0A00080C0C00080C0E00080E0000080E0200080E0400080E0600080E0800080E0A00080E0C00080E0E000C0000000C0002000C0004000C0006000C0008000C000A000C000C000C000E000C0200000C0202000C0204000C0206000C0208000C020A000C020C000C020E000C0400000C0402000C0404000C0406000C0
310
408000C040A000C040C000C040E000C0600000C0602000C0604000C0606000C0608000C060A000C060C000C060E000C0800000C0802000C0804000C0806000C0808000C080A000C080C000C080E000C0A00000C0A02000C0A04000C0A06000C0A08000C0A0A000C0A0C000C0A0E000C0C00000C0C02000C0C04000C0C06000
310
C0C08000C0C0A000F0FBFF00A4A0A000808080000000FF0000FF000000FFFF00FF000000FF00FF00FFFF0000FFFFFF0000000000000000000000000000000000000000000000000000000000000000000000000000000000000000000000000000000000000000000000000000000000000000000000000000000000000000
310
0000000000000000000000000000000000000000FFFFFFFFFFFFFFFFFFFFFFFFFFFFFFFFFFFFFFFFFFFFFFFFFFFF0000000000FF0000000000000000000000000000000000000000000000000000FFFF000000FF0000000000000000000000000000000000000000000000000000FF00000000FF0000000000000000000000
310
000000000000000000000000000000FF00000000FF0000000000000000000000000000000000000000000000000000FF00000000FF0000000000000000000000000000000000000000000000000000FF00000000FF0000000000000000000000000000000000000000000000000000FF00000000FF00000000000000000000
310
00000000000000000000000000000000FF00000000FF0000000000000000000000000000000000000000000000000000FF00000000FF0000000000000000000000000000000000000000000000000000FF00000000FF0000000000000000000000000000000000000000000000000000FF00000000FF000000000000000000
310
0000000000000000000000000000000000FF00000000FF0000000000000000000000000000000000000000000000000000FF00000000FF0000000000000000000000000000000000000000000000000000FF00000000FF0000000000000000000000000000000000000000000000000000FF00000000FF0000000000000000
310
000000000000000000000000000000000000FF00000000FF0000000000000000000000000000000000000000000000000000FF00000000FF0000000000000000000000000000000000000000000000000000FF00000000FF0000000000000000000000000000000000000000000000000000FF00000000FF00000000000000
310
00000000000000000000000000000000000000FF00000000FF0000000000000000000000000000000000000000000000000000FF00000000FF0000000000000000000000000000000000000000000000000000FF00000000FF0000000000000000000000000000000000000000000000000000FF00000000FF000000000000
310
0000000000000000000000000000000000000000FF00000000FF0000000000000000000000000000000000000000000000000000FFFF00000000FFFFFFFFFFFFFFFFFFFFFFFFFFFFFFFFFFFFFFFFFFFFFFFFFFFF00000000000000000000000000000000000000000000000000000000000000000000000000000000000000
310
0000000000000000000000000000000000000000000000000000000000000000000000000000000000000000000000000000000000000000
 70
     0
280
     1
281
     0
  0
BLOCK_RECORD
  5
1A6A
330
1
100
AcDbSymbolTableRecord
100
AcDbBlockTableRecord
  2
AP
340
0
310
2800000020000000200000000100080000000000000400000000000000000000000000000000000000000000000080000080000000808000800000008000800080800000C0C0C000C0DCC000F0CAA6000020400000206000002080000020A0000020C0000020E00000400000004020000040400000406000004080000040A0
310
000040C0000040E00000600000006020000060400000606000006080000060A0000060C0000060E00000800000008020000080400000806000008080000080A0000080C0000080E00000A0000000A0200000A0400000A0600000A0800000A0A00000A0C00000A0E00000C0000000C0200000C0400000C0600000C0800000C0
310
A00000C0C00000C0E00000E0000000E0200000E0400000E0600000E0800000E0A00000E0C00000E0E00040000000400020004000400040006000400080004000A0004000C0004000E00040200000402020004020400040206000402080004020A0004020C0004020E000404000004040200040404000404060004040800040
310
40A0004040C0004040E00040600000406020004060400040606000406080004060A0004060C0004060E00040800000408020004080400040806000408080004080A0004080C0004080E00040A0000040A0200040A0400040A0600040A0800040A0A00040A0C00040A0E00040C0000040C0200040C0400040C0600040C08000
310
40C0A00040C0C00040C0E00040E0000040E0200040E0400040E0600040E0800040E0A00040E0C00040E0E00080000000800020008000400080006000800080008000A0008000C0008000E00080200000802020008020400080206000802080008020A0008020C0008020E00080400000804020008040400080406000804080
310
008040A0008040C0008040E00080600000806020008060400080606000806080008060A0008060C0008060E00080800000808020008080400080806000808080008080A0008080C0008080E00080A0000080A0200080A0400080A0600080A0800080A0A00080A0C00080A0E00080C0000080C0200080C0400080C0600080C0
310
800080C0A00080C0C00080C0E00080E0000080E0200080E0400080E0600080E0800080E0A00080E0C00080E0E000C0000000C0002000C0004000C0006000C0008000C000A000C000C000C000E000C0200000C0202000C0204000C0206000C0208000C020A000C020C000C020E000C0400000C0402000C0404000C0406000C0
310
408000C040A000C040C000C040E000C0600000C0602000C0604000C0606000C0608000C060A000C060C000C060E000C0800000C0802000C0804000C0806000C0808000C080A000C080C000C080E000C0A00000C0A02000C0A04000C0A06000C0A08000C0A0A000C0A0C000C0A0E000C0C00000C0C02000C0C04000C0C06000
310
C0C08000C0C0A000F0FBFF00A4A0A000808080000000FF0000FF000000FFFF00FF000000FF00FF00FFFF0000FFFFFF00000000000000000000000000000000000000000000000000000000000000000000000000000000000000000000000000000000000000000000000000000000000000000000000000000000000000FF
310
FFFFFFFF000000000000000000000000000000000000000000FFFFFFFFFFFF0000000000FFFF0000000000000000000000000000FFFFFF00FF00000000000000000000000000FFFF000000FFFFFF00000000000000000000FF000000000000000000000000000000FFFF00000000000000000000000000FF00000000000000
310
0000000000000000000000FFFF00000000000000000000FF0000000000000000000000000000000000000000FF000000000000000000FF00000000000000000000000000000000000000000000FF0000000000000000FF00000000000000000000000000000000000000000000FF00000000000000FF000000000000000000
310
000000000000000000000000000000FF0000000000FF00000000000000000000000000000000000000000000000000FF0000000000FF00000000000000000000000000000000000000000000000000FF0000000000FF0000000000000000000000000000000000000000000000000000FF00000000FF000000000000000000
310
0000000000000000000000000000000000FF00000000FF000000000000000000000000000000000000000000000000000000FF000000FF000000000000000000000000000000000000000000000000000000FF000000FF000000000000000000000000000000000000000000000000000000FF000000FF0000000000000000
310
000000000000000000000000000000000000FF00000000FF0000000000000000000000000000000000000000000000000000FF00000000FF00000000000000000000000000000000000000000000000000FF000000000000FF000000000000000000000000000000000000000000000000FF00000000000000FF0000000000
310
0000000000000000000000000000000000FF0000000000000000FF00000000000000000000000000000000000000000000FF000000000000000000FF0000000000000000000000000000000000000000FF0000000000000000000000FF00000000000000000000000000000000000000FF000000000000000000000000FF00
310
000000000000000000000000000000FFFF000000000000000000FFFFFF00FF0000000000000000000000000000FFFF0000FFFFFF0000000000000000000000FFFFFFFFFF00000000000000FFFF0000000000000000000000000000000000000000000000FFFFFFFFFFFFFF0000000000000000000000000000000000000000
310
0000000000000000000000000000000000000000000000000000000000000000000000000000000000000000000000000000000000000000
 70
     1
280
     1
281
     0
  0
BLOCK_RECORD
  5
2A02
330
1
100
AcDbSymbolTableRecord
100
AcDbBlockTableRecord
  2
A$C506A1C50
340
0
 70
     0
280
     1
281
     0
  0
BLOCK_RECORD
  5
4F11
330
1
100
AcDbSymbolTableRecord
100
AcDbBlockTableRecord
  2
SDCard
340
0
310
2800000020000000200000000100080000000000000400000000000000000000000000000000000000000000000080000080000000808000800000008000800080800000C0C0C000C0DCC000F0CAA6000020400000206000002080000020A0000020C0000020E00000400000004020000040400000406000004080000040A0
310
000040C0000040E00000600000006020000060400000606000006080000060A0000060C0000060E00000800000008020000080400000806000008080000080A0000080C0000080E00000A0000000A0200000A0400000A0600000A0800000A0A00000A0C00000A0E00000C0000000C0200000C0400000C0600000C0800000C0
310
A00000C0C00000C0E00000E0000000E0200000E0400000E0600000E0800000E0A00000E0C00000E0E00040000000400020004000400040006000400080004000A0004000C0004000E00040200000402020004020400040206000402080004020A0004020C0004020E000404000004040200040404000404060004040800040
310
40A0004040C0004040E00040600000406020004060400040606000406080004060A0004060C0004060E00040800000408020004080400040806000408080004080A0004080C0004080E00040A0000040A0200040A0400040A0600040A0800040A0A00040A0C00040A0E00040C0000040C0200040C0400040C0600040C08000
310
40C0A00040C0C00040C0E00040E0000040E0200040E0400040E0600040E0800040E0A00040E0C00040E0E00080000000800020008000400080006000800080008000A0008000C0008000E00080200000802020008020400080206000802080008020A0008020C0008020E00080400000804020008040400080406000804080
310
008040A0008040C0008040E00080600000806020008060400080606000806080008060A0008060C0008060E00080800000808020008080400080806000808080008080A0008080C0008080E00080A0000080A0200080A0400080A0600080A0800080A0A00080A0C00080A0E00080C0000080C0200080C0400080C0600080C0
310
800080C0A00080C0C00080C0E00080E0000080E0200080E0400080E0600080E0800080E0A00080E0C00080E0E000C0000000C0002000C0004000C0006000C0008000C000A000C000C000C000E000C0200000C0202000C0204000C0206000C0208000C020A000C020C000C020E000C0400000C0402000C0404000C0406000C0
310
408000C040A000C040C000C040E000C0600000C0602000C0604000C0606000C0608000C060A000C060C000C060E000C0800000C0802000C0804000C0806000C0808000C080A000C080C000C080E000C0A00000C0A02000C0A04000C0A06000C0A08000C0A0A000C0A0C000C0A0E000C0C00000C0C02000C0C04000C0C06000
310
C0C08000C0C0A000F0FBFF00A4A0A000808080000000FF0000FF000000FFFF00FF000000FF00FF00FFFF0000FFFFFF0000000000000000000000000000000000000000000000000000000000000000000000000000000000000000000000000000000000000000000000000000000000000000000000000000000000000000
310
00000000000000000000000000000000000000000000000000000000000000000000000000000000000000000000000000000000000000000000000000000000000000000000000000000000000000000000000000000000000000000000000000000000000000000000000000000000000000000000000000000000000000
310
00000000000000000000000000000000000000000000000000000000000000000000000000000000000000000000000000000000000000000000000000000000000000000000000000000000000000000000000000000000000000000000000000000000000000000000000000000000000000000000000000000000000000
310
000000000000000000000000000000000000000000000000000000000000000000000000000000000000000000000000000000000000000000000000000000000000000000000000000000000000000000000000000000000000000000000000000000000000000000000000000000000000000000000000FCFCFCFCFCFCFC
310
FCFCFCFCFCFCFCFCFCFCFCFCFCFCFC00000000000000000000FC00FB00000000000000000000000000000000FB00FC000000000000FAFAFAFCFCFAFAFAFAFAFAFAFAFAFAFAFAFAFAFAFAFAFAFAFAFCFCFAFAFA0000FAFAFAFAFAFAFAFAFAFAFAFAFAFAFAFAFAFAFAFAFAFAFAFAFAFAFAFAFAFA000000000000000000000000
310
00000000000000000000000000000000000000000000000000000000000000000000000000000000000000000000000000000000000000000000000000000000000000000000000000000000000000000000000000000000000000000000000000000000000000000000000000000000000000000000000000000000000000
310
00000000000000000000000000000000000000000000000000000000000000000000000000000000000000000000000000000000000000000000000000000000000000000000000000000000000000000000000000000000000000000000000000000000000000000000000000000000000000000000000000000000000000
310
00000000000000000000000000000000000000000000000000000000000000000000000000000000000000000000000000000000000000000000000000000000000000000000000000000000000000000000000000000000000000000000000000000000000000000000000000000000000000000000000000000000000000
310
0000000000000000000000000000000000000000000000000000000000000000000000000000000000000000000000000000000000000000
 70
     1
280
     1
281
     0
  0
BLOCK_RECORD
  5
50AC
330
1
100
AcDbSymbolTableRecord
100
AcDbBlockTableRecord
  2
LCD84
340
0
310
2800000020000000200000000100080000000000000400000000000000000000000000000000000000000000000080000080000000808000800000008000800080800000C0C0C000C0DCC000F0CAA6000020400000206000002080000020A0000020C0000020E00000400000004020000040400000406000004080000040A0
310
000040C0000040E00000600000006020000060400000606000006080000060A0000060C0000060E00000800000008020000080400000806000008080000080A0000080C0000080E00000A0000000A0200000A0400000A0600000A0800000A0A00000A0C00000A0E00000C0000000C0200000C0400000C0600000C0800000C0
310
A00000C0C00000C0E00000E0000000E0200000E0400000E0600000E0800000E0A00000E0C00000E0E00040000000400020004000400040006000400080004000A0004000C0004000E00040200000402020004020400040206000402080004020A0004020C0004020E000404000004040200040404000404060004040800040
310
40A0004040C0004040E00040600000406020004060400040606000406080004060A0004060C0004060E00040800000408020004080400040806000408080004080A0004080C0004080E00040A0000040A0200040A0400040A0600040A0800040A0A00040A0C00040A0E00040C0000040C0200040C0400040C0600040C08000
310
40C0A00040C0C00040C0E00040E0000040E0200040E0400040E0600040E0800040E0A00040E0C00040E0E00080000000800020008000400080006000800080008000A0008000C0008000E00080200000802020008020400080206000802080008020A0008020C0008020E00080400000804020008040400080406000804080
310
008040A0008040C0008040E00080600000806020008060400080606000806080008060A0008060C0008060E00080800000808020008080400080806000808080008080A0008080C0008080E00080A0000080A0200080A0400080A0600080A0800080A0A00080A0C00080A0E00080C0000080C0200080C0400080C0600080C0
310
800080C0A00080C0C00080C0E00080E0000080E0200080E0400080E0600080E0800080E0A00080E0C00080E0E000C0000000C0002000C0004000C0006000C0008000C000A000C000C000C000E000C0200000C0202000C0204000C0206000C0208000C020A000C020C000C020E000C0400000C0402000C0404000C0406000C0
310
408000C040A000C040C000C040E000C0600000C0602000C0604000C0606000C0608000C060A000C060C000C060E000C0800000C0802000C0804000C0806000C0808000C080A000C080C000C080E000C0A00000C0A02000C0A04000C0A06000C0A08000C0A0A000C0A0C000C0A0E000C0C00000C0C02000C0C04000C0C06000
310
C0C08000C0C0A000F0FBFF00A4A0A000808080000000FF0000FF000000FFFF00FF000000FF00FF00FFFF0000FFFFFF0000000000000000000000000000000000000000000000000000000000000000000000000000000000000000000000000000000000000000000000000000000000000000000000000000000000000000
310
00000000000000000000000000000000000000000000000000000000000000000000000000000000000000000000000000000000000000000000000000000000000000000000000000000000000000000000FBFBFBFBFBFBFBFBFBFBFBFBFBFBFBFBFBFBFBFBFBFBFBFBFBFBFBFBFBFB0000FB00FBFBFBFBFBFBFBFBFBFBFB
310
FBFBFBFBFBFBFBFBFBFBFBFBFBFBFB00FB0000FB00FB000000000000000000000000000000000000000000000000FB00FB0000FB00FB000000000000000000000000000000000000000000000000FB00FB0000FB00FB000000000000000000000000000000000000000000000000FB00FB0000FB00FB000000000000000000
310
000000000000000000000000000000FB00FB0000FB00FB000000000000000000000000000000000000000000000000FB00FB0000FB00FB000000000000000000000000000000000000000000000000FB00FB0000FB00FB000000000000000000000000000000000000000000000000FB00FB0000FB00FB0000000000000000
310
00000000000000000000000000000000FB00FB0000FB00FB000000000000000000000000000000000000000000000000FB00FB0000FB00FB000000000000000000000000000000000000000000000000FB00FB0000FB00FB000000000000000000000000000000000000000000000000FB00FB0000FB00FB00000000000000
310
0000000000000000000000000000000000FB00FB0000FB00FB000000000000000000000000000000000000000000000000FB00FB0000FB00FB000000000000000000000000000000000000000000000000FB00FB0000FB00FB000000000000000000000000000000000000000000000000FB00FB0000FB00FB000000000000
310
000000000000000000000000000000000000FB00FB0000FB00FB000000000000000000000000000000000000000000000000FB00FB0000FB00FB000000000000000000000000000000000000000000000000FB00FB0000FB00FBFBFBFBFBFBFBFBFBFBFBFBFBFBFBFBFBFBFBFBFBFBFBFBFBFB00FB0000FBFBFBFBFBFBFBFB
310
FBFBFBFBFBFBFBFBFBFBFBFBFBFBFBFBFBFBFBFBFBFB000000000000000000000000000000000000000000000000000000000000000000000000000000000000000000000000000000000000000000000000000000000000000000000000000000000000000000000000000000000000000000000000000000000000000000
310
0000000000000000000000000000000000000000000000000000000000000000000000000000000000000000000000000000000000000000
 70
     1
280
     1
281
     0
  0
BLOCK_RECORD
  5
50CA
330
1
100
AcDbSymbolTableRecord
100
AcDbBlockTableRecord
  2
A$C4EDA28EF
340
0
 70
     1
280
     1
281
     0
  0
BLOCK_RECORD
  5
673B
330
1
100
AcDbSymbolTableRecord
100
AcDbBlockTableRecord
  2
SW_CENTERMARKSYMBOL_4
340
0
 70
     0
280
     1
281
     0
  0
BLOCK_RECORD
  5
6746
330
1
100
AcDbSymbolTableRecord
100
AcDbBlockTableRecord
  2
SW_CENTERMARKSYMBOL_5
340
0
 70
     0
280
     1
281
     0
  0
BLOCK_RECORD
  5
6751
330
1
100
AcDbSymbolTableRecord
100
AcDbBlockTableRecord
  2
SW_CENTERMARKSYMBOL_6
340
0
 70
     0
280
     1
281
     0
  0
BLOCK_RECORD
  5
675C
330
1
100
AcDbSymbolTableRecord
100
AcDbBlockTableRecord
  2
SW_CENTERMARKSYMBOL_7
340
0
 70
     0
280
     1
281
     0
  0
BLOCK_RECORD
  5
6767
330
1
100
AcDbSymbolTableRecord
100
AcDbBlockTableRecord
  2
SW_CENTERMARKSYMBOL_8
340
0
 70
     0
280
     1
281
     0
  0
BLOCK_RECORD
  5
6772
330
1
100
AcDbSymbolTableRecord
100
AcDbBlockTableRecord
  2
SW_CENTERMARKSYMBOL_9
340
0
 70
     0
280
     1
281
     0
  0
BLOCK_RECORD
  5
677D
330
1
100
AcDbSymbolTableRecord
100
AcDbBlockTableRecord
  2
SW_CENTERMARKSYMBOL_10
340
0
 70
     0
280
     1
281
     0
  0
BLOCK_RECORD
  5
6788
330
1
100
AcDbSymbolTableRecord
100
AcDbBlockTableRecord
  2
SW_CENTERMARKSYMBOL_11
340
0
 70
     0
280
     1
281
     0
  0
BLOCK_RECORD
  5
6793
330
1
100
AcDbSymbolTableRecord
100
AcDbBlockTableRecord
  2
SW_CENTERMARKSYMBOL_12
340
0
 70
     0
280
     1
281
     0
  0
BLOCK_RECORD
  5
67BA
330
1
100
AcDbSymbolTableRecord
100
AcDbBlockTableRecord
  2
SW_CENTERMARKSYMBOL_13
340
0
 70
     0
280
     1
281
     0
  0
BLOCK_RECORD
  5
67C5
330
1
100
AcDbSymbolTableRecord
100
AcDbBlockTableRecord
  2
SW_CENTERMARKSYMBOL_14
340
0
 70
     0
280
     1
281
     0
  0
BLOCK_RECORD
  5
67D0
330
1
100
AcDbSymbolTableRecord
100
AcDbBlockTableRecord
  2
SW_CENTERMARKSYMBOL_15
340
0
 70
     0
280
     1
281
     0
  0
BLOCK_RECORD
  5
67DB
330
1
100
AcDbSymbolTableRecord
100
AcDbBlockTableRecord
  2
SW_CENTERMARKSYMBOL_16
340
0
 70
     0
280
     1
281
     0
  0
BLOCK_RECORD
  5
67E6
330
1
100
AcDbSymbolTableRecord
100
AcDbBlockTableRecord
  2
SW_CENTERMARKSYMBOL_17
340
0
 70
     0
280
     1
281
     0
  0
BLOCK_RECORD
  5
67F1
330
1
100
AcDbSymbolTableRecord
100
AcDbBlockTableRecord
  2
SW_CENTERMARKSYMBOL_18
340
0
 70
     0
280
     1
281
     0
  0
BLOCK_RECORD
  5
67FC
330
1
100
AcDbSymbolTableRecord
100
AcDbBlockTableRecord
  2
SW_CENTERMARKSYMBOL_19
340
0
 70
     0
280
     1
281
     0
  0
BLOCK_RECORD
  5
6807
330
1
100
AcDbSymbolTableRecord
100
AcDbBlockTableRecord
  2
SW_CENTERMARKSYMBOL_20
340
0
 70
     0
280
     1
281
     0
  0
BLOCK_RECORD
  5
6812
330
1
100
AcDbSymbolTableRecord
100
AcDbBlockTableRecord
  2
SW_CENTERMARKSYMBOL_21
340
0
 70
     0
280
     1
281
     0
  0
BLOCK_RECORD
  5
681D
330
1
100
AcDbSymbolTableRecord
100
AcDbBlockTableRecord
  2
SW_CENTERMARKSYMBOL_22
340
0
 70
     0
280
     1
281
     0
  0
BLOCK_RECORD
  5
6828
330
1
100
AcDbSymbolTableRecord
100
AcDbBlockTableRecord
  2
SW_CENTERMARKSYMBOL_23
340
0
 70
     0
280
     1
281
     0
  0
BLOCK_RECORD
  5
6833
330
1
100
AcDbSymbolTableRecord
100
AcDbBlockTableRecord
  2
SW_CENTERMARKSYMBOL_24
340
0
 70
     0
280
     1
281
     0
  0
BLOCK_RECORD
  5
6846
330
1
100
AcDbSymbolTableRecord
100
AcDbBlockTableRecord
  2
SW_CENTERMARKSYMBOL_25
340
0
 70
     0
280
     1
281
     0
  0
BLOCK_RECORD
  5
6851
330
1
100
AcDbSymbolTableRecord
100
AcDbBlockTableRecord
  2
SW_CENTERMARKSYMBOL_26
340
0
 70
     0
280
     1
281
     0
  0
BLOCK_RECORD
  5
685C
330
1
100
AcDbSymbolTableRecord
100
AcDbBlockTableRecord
  2
SW_CENTERMARKSYMBOL_27
340
0
 70
     0
280
     1
281
     0
  0
BLOCK_RECORD
  5
6867
330
1
100
AcDbSymbolTableRecord
100
AcDbBlockTableRecord
  2
SW_CENTERMARKSYMBOL_28
340
0
 70
     0
280
     1
281
     0
  0
BLOCK_RECORD
  5
6872
330
1
100
AcDbSymbolTableRecord
100
AcDbBlockTableRecord
  2
SW_CENTERMARKSYMBOL_29
340
0
 70
     0
280
     1
281
     0
  0
BLOCK_RECORD
  5
687D
330
1
100
AcDbSymbolTableRecord
100
AcDbBlockTableRecord
  2
SW_CENTERMARKSYMBOL_30
340
0
 70
     0
280
     1
281
     0
  0
BLOCK_RECORD
  5
6888
330
1
100
AcDbSymbolTableRecord
100
AcDbBlockTableRecord
  2
SW_CENTERMARKSYMBOL_31
340
0
 70
     0
280
     1
281
     0
  0
BLOCK_RECORD
  5
6893
330
1
100
AcDbSymbolTableRecord
100
AcDbBlockTableRecord
  2
SW_CENTERMARKSYMBOL_32
340
0
 70
     0
280
     1
281
     0
  0
BLOCK_RECORD
  5
689E
330
1
100
AcDbSymbolTableRecord
100
AcDbBlockTableRecord
  2
SW_CENTERMARKSYMBOL_33
340
0
 70
     0
280
     1
281
     0
  0
BLOCK_RECORD
  5
68A9
330
1
100
AcDbSymbolTableRecord
100
AcDbBlockTableRecord
  2
SW_CENTERMARKSYMBOL_34
340
0
 70
     0
280
     1
281
     0
  0
BLOCK_RECORD
  5
68B4
330
1
100
AcDbSymbolTableRecord
100
AcDbBlockTableRecord
  2
SW_CENTERMARKSYMBOL_35
340
0
 70
     0
280
     1
281
     0
  0
BLOCK_RECORD
  5
68BF
330
1
100
AcDbSymbolTableRecord
100
AcDbBlockTableRecord
  2
SW_CENTERMARKSYMBOL_36
340
0
 70
     0
280
     1
281
     0
  0
BLOCK_RECORD
  5
68CA
330
1
100
AcDbSymbolTableRecord
100
AcDbBlockTableRecord
  2
SW_CENTERMARKSYMBOL_37
340
0
 70
     0
280
     1
281
     0
  0
ENDTAB
  0
ENDSEC
  0
SECTION
  2
BLOCKS
  0
BLOCK
  5
20
330
1F
100
AcDbEntity
  8
0
100
AcDbBlockBegin
  2
*Model_Space
 70
     0
 10
0.0
 20
0.0
 30
0.0
  3
*Model_Space
  1

  0
ENDBLK
  5
21
330
1F
100
AcDbEntity
  8
0
100
AcDbBlockEnd
  0
BLOCK
  5
184
330
182
100
AcDbEntity
 67
     1
  8
0
100
AcDbBlockBegin
  2
*Paper_Space
 70
     0
 10
0.0
 20
0.0
 30
0.0
  3
*Paper_Space
  1

  0
ENDBLK
  5
185
330
182
100
AcDbEntity
 67
     1
  8
0
100
AcDbBlockEnd
  0
BLOCK
  5
11A
330
118
100
AcDbEntity
  8
0
100
AcDbBlockBegin
  2
GENAXEH
 70
     0
 10
0.0
 20
0.0
 30
0.0
  3
GENAXEH
  1

  0
LINE
  5
119
330
118
100
AcDbEntity
  8
0
100
AcDbLine
 10
-1.0
 20
0.0
 30
0.0
 11
1.0
 21
0.0
 31
0.0
  0
ENDBLK
  5
11B
330
118
100
AcDbEntity
  8
0
100
AcDbBlockEnd
  0
BLOCK
  5
15E0
330
1592
100
AcDbEntity
  8
0
100
AcDbBlockBegin
  2
af3500
 70
     0
 10
0.0
 20
0.0
 30
0.0
  3
af3500
  1

  0
LINE
  5
1593
330
1592
100
AcDbEntity
  8
0
  6
Continuous
 62
     7
100
AcDbLine
 10
3.637599042778433
 20
2.914559330349261
 30
0.0
 11
-3.674386333221562
 21
2.914559330349261
 31
0.0
  0
LINE
  5
1594
330
1592
100
AcDbEntity
  8
0
  6
Continuous
 62
     7
100
AcDbLine
 10
-3.465881411172915
 20
2.415160329149259
 30
0.0
 11
3.429094120729786
 21
2.415160329149259
 31
0.0
  0
LINE
  5
1595
330
1592
100
AcDbEntity
  8
0
  6
Continuous
 62
     7
100
AcDbLine
 10
3.334449649078436
 20
2.335160489149259
 30
0.0
 11
-3.371236939521566
 21
2.335160489149259
 31
0.0
  0
LINE
  5
1596
330
1592
100
AcDbEntity
  8
0
  6
Continuous
 62
     7
100
AcDbLine
 10
4.033748250478438
 20
2.96045923854926
 30
0.0
 11
-4.070535540921568
 21
2.96045923854926
 31
0.0
  0
LINE
  5
1597
330
1592
100
AcDbEntity
  8
0
  6
Continuous
 62
     7
100
AcDbLine
 10
3.731598854778424
 20
-3.647427545650741
 30
0.0
 11
3.731598854778424
 21
2.820559518349256
 31
0.0
  0
LINE
  5
1598
330
1592
100
AcDbEntity
  8
0
  6
Continuous
 62
     7
100
AcDbLine
 10
3.464449389078423
 20
2.379805060800606
 30
0.0
 11
3.464449389078423
 21
-2.834173833102083
 31
0.0
  0
LINE
  5
1599
330
1592
100
AcDbEntity
  8
0
  6
Continuous
 62
     7
100
AcDbLine
 10
3.384449549078424
 20
-2.739529361450734
 30
0.0
 11
3.384449549078424
 21
2.285160589149255
 31
0.0
  0
LINE
  5
159A
330
1592
100
AcDbEntity
  8
0
  6
Continuous
 62
     7
100
AcDbLine
 10
4.033748250478438
 20
-3.855327129850735
 30
0.0
 11
4.033748250478438
 21
2.96045923854926
 31
0.0
  0
LINE
  5
159B
330
1592
100
AcDbEntity
  8
0
  6
Continuous
 62
     7
100
AcDbLine
 10
3.347390575451653
 20
2.333456783871127
 30
0.0
 11
3.429094120729786
 21
2.415160329149259
 31
0.0
  0
ELLIPSE
  5
159C
330
1592
100
AcDbEntity
  8
0
  6
Continuous
 62
     7
100
AcDbEllipse
 10
3.393738852381133
 20
2.344449792451968
 30
0.0
 11
0.0612371210950917
 21
0.0612371210950928
 31
0.0
210
0.0
220
0.0
230
1.0
 40
0.5773502691896116
 41
5.759586531581311
 42
6.80678408277792
  0
LINE
  5
159D
330
1592
100
AcDbEntity
  8
0
  6
Continuous
 62
     7
100
AcDbLine
 10
3.464449389078423
 20
2.379805060800606
 30
0.0
 11
3.382745843800306
 21
2.298101515522489
 31
0.0
  0
ARC
  5
159E
330
1592
100
AcDbEntity
  8
0
  6
Continuous
 62
     7
100
AcDbCircle
 10
3.334449649078436
 20
2.285160589149255
 30
0.0
 40
0.0499999000000008
100
AcDbArc
 50
14.99999999999953
 51
75.00000000000047
  0
ARC
  5
159F
330
1592
100
AcDbEntity
  8
0
  6
Continuous
 62
     7
100
AcDbCircle
 10
3.334449649078436
 20
2.285160589149255
 30
0.0
 40
0.0499998999999993
100
AcDbArc
 50
75.00000000000047
 51
90.0
  0
ARC
  5
15A0
330
1592
100
AcDbEntity
  8
0
  6
Continuous
 62
     7
100
AcDbCircle
 10
3.334449649078436
 20
2.285160589149255
 30
0.0
 40
0.0499999000000008
100
AcDbArc
 50
0.0
 51
14.99999999999953
  0
ARC
  5
15A1
330
1592
100
AcDbEntity
  8
0
  6
Continuous
 62
     7
100
AcDbCircle
 10
3.637599042778433
 20
2.820559518349256
 30
0.0
 40
0.0939998120000008
100
AcDbArc
 50
0.0
 51
90.0
  0
CIRCLE
  5
15A2
330
1592
100
AcDbEntity
  8
0
  6
Continuous
 62
     7
100
AcDbCircle
 10
-3.881598554778435
 20
2.802559554349258
 30
0.0
 40
0.0532498934999992
210
0.0
220
0.0
230
-1.0
  0
ARC
  5
15A3
330
1592
100
AcDbEntity
  8
0
  6
Continuous
 62
     7
100
AcDbCircle
 10
3.881598554778435
 20
2.802559554349258
 30
0.0
 40
0.0689998620000009
100
AcDbArc
 50
254.9999999999995
 51
195.0000000000019
  0
CIRCLE
  5
15A4
330
1592
100
AcDbEntity
  8
0
  6
Continuous
 62
     7
100
AcDbCircle
 10
-2.684600948778423
 20
-3.410228020050736
 30
0.0
 40
0.1374997250000003
210
0.0
220
0.0
230
-1.0
  0
LINE
  5
15A5
330
1592
100
AcDbEntity
  8
0
  6
Continuous
 62
     7
100
AcDbLine
 10
-3.674386333221576
 20
-3.741427357650733
 30
0.0
 11
3.637599042778433
 21
-3.741427357650733
 31
0.0
  0
LINE
  5
15A6
330
1592
100
AcDbEntity
  8
0
  6
Continuous
 62
     7
100
AcDbLine
 10
3.429094120729786
 20
-2.869529101450736
 30
0.0
 11
-3.465881411172915
 21
-2.869529101450736
 31
0.0
  0
LINE
  5
15A7
330
1592
100
AcDbEntity
  8
0
  6
Continuous
 62
     7
100
AcDbLine
 10
-3.371236939521566
 20
-2.789529261450738
 30
0.0
 11
3.334449649078436
 21
-2.789529261450738
 31
0.0
  0
LINE
  5
15A8
330
1592
100
AcDbEntity
  8
0
  6
Continuous
 62
     7
100
AcDbLine
 10
-4.070535540921568
 20
-3.855327129850735
 30
0.0
 11
4.033748250478438
 21
-3.855327129850735
 31
0.0
  0
LINE
  5
15A9
330
1592
100
AcDbEntity
  8
0
  6
Continuous
 62
     7
100
AcDbLine
 10
-3.421236839521569
 20
2.285160589149255
 30
0.0
 11
-3.421236839521569
 21
-2.739529361450734
 31
0.0
  0
LINE
  5
15AA
330
1592
100
AcDbEntity
  8
0
  6
Continuous
 62
     7
100
AcDbLine
 10
-3.501236679521568
 20
-2.834173833102083
 30
0.0
 11
-3.501236679521568
 21
2.379805060800606
 31
0.0
  0
LINE
  5
15AB
330
1592
100
AcDbEntity
  8
0
  6
Continuous
 62
     7
100
AcDbLine
 10
-3.768386145221569
 20
2.820559518349256
 30
0.0
 11
-3.768386145221569
 21
-3.647427545650741
 31
0.0
  0
LINE
  5
15AC
330
1592
100
AcDbEntity
  8
0
  6
Continuous
 62
     7
100
AcDbLine
 10
-4.070535540921568
 20
2.96045923854926
 30
0.0
 11
-4.070535540921568
 21
-3.855327129850735
 31
0.0
  0
LINE
  5
15AD
330
1592
100
AcDbEntity
  8
0
  6
Continuous
 62
     7
100
AcDbLine
 10
-3.501236679521568
 20
-2.834173833102083
 30
0.0
 11
-3.419533134243437
 21
-2.752470287823965
 31
0.0
  0
ARC
  5
15AE
330
1592
100
AcDbEntity
  8
0
  6
Continuous
 62
     7
100
AcDbCircle
 10
-3.371236939521566
 20
-2.739529361450734
 30
0.0
 40
0.0499999000000005
100
AcDbArc
 50
195.0000000000012
 51
255.0000000000004
  0
ARC
  5
15AF
330
1592
100
AcDbEntity
  8
0
  6
Continuous
 62
     7
100
AcDbCircle
 10
-3.674386333221576
 20
-3.647427545650741
 30
0.0
 40
0.0939998120000018
100
AcDbArc
 50
180.0
 51
270.0000000000008
  0
CIRCLE
  5
15B0
330
1592
100
AcDbEntity
  8
0
  6
Continuous
 62
     7
100
AcDbCircle
 10
3.918385845221564
 20
-3.697427445650743
 30
0.0
 40
0.0532498934999998
210
0.0
220
0.0
230
-1.0
  0
ARC
  5
15B1
330
1592
100
AcDbEntity
  8
0
  6
Continuous
 62
     7
100
AcDbCircle
 10
-3.918385845221564
 20
-3.697427445650743
 30
0.0
 40
0.0689998620000001
100
AcDbArc
 50
255.0000000000015
 51
195.0000000000012
  0
LINE
  5
15B2
330
1592
100
AcDbEntity
  8
0
  6
Continuous
 62
     7
100
AcDbLine
 10
-2.643388395221561
 20
-3.32372819305074
 30
0.0
 11
-2.643388395221561
 21
-3.496727847050734
 31
0.0
  0
LINE
  5
15B3
330
1592
100
AcDbEntity
  8
0
  6
Continuous
 62
     7
100
AcDbLine
 10
-2.393388895221562
 20
-3.496727847050734
 30
0.0
 11
-2.393388895221562
 21
-3.32372819305074
 31
0.0
  0
ARC
  5
15B4
330
1592
100
AcDbEntity
  8
0
  6
Continuous
 62
     7
100
AcDbCircle
 10
-2.518388645221563
 20
-3.496727847050734
 30
0.0
 40
0.1249997499999999
100
AcDbArc
 50
180.0
 51
0.0
  0
ELLIPSE
  5
15B5
330
1592
100
AcDbEntity
  8
0
  6
Continuous
 62
     7
100
AcDbEllipse
 10
-3.430526142824263
 20
-2.798818564753446
 30
0.0
 11
0.0612371210950923
 21
0.061237121095092
 31
0.0
210
0.0
220
0.0
230
0.9999999999999998
 40
0.5773502691896311
 41
2.617993877991513
 42
3.665191429188114
  0
LINE
  5
15B6
330
1592
100
AcDbEntity
  8
0
  6
Continuous
 62
     7
100
AcDbLine
 10
-3.384177865894783
 20
-2.787825556172605
 30
0.0
 11
-3.465881411172915
 21
-2.869529101450736
 31
0.0
  0
ARC
  5
15B7
330
1592
100
AcDbEntity
  8
0
  6
Continuous
 62
     7
100
AcDbCircle
 10
-3.371236939521566
 20
-2.739529361450734
 30
0.0
 40
0.0499999
100
AcDbArc
 50
255.0000000000015
 51
270.0000000000008
  0
ARC
  5
15B8
330
1592
100
AcDbEntity
  8
0
  6
Continuous
 62
     7
100
AcDbCircle
 10
-2.518388645221563
 20
-3.32372819305074
 30
0.0
 40
0.1249997500000004
100
AcDbArc
 50
0.0
 51
180.0
  0
ARC
  5
15B9
330
1592
100
AcDbEntity
  8
0
  6
Continuous
 62
     7
100
AcDbCircle
 10
-3.371236939521566
 20
-2.739529361450734
 30
0.0
 40
0.0499999000000001
100
AcDbArc
 50
180.0
 51
195.0000000000019
  0
LINE
  5
15BA
330
1592
100
AcDbEntity
  8
0
  6
Continuous
 62
     7
100
AcDbLine
 10
-1.64339039522157
 20
-3.32372819305074
 30
0.0
 11
-1.64339039522157
 21
-3.496727847050734
 31
0.0
  0
LINE
  5
15BB
330
1592
100
AcDbEntity
  8
0
  6
Continuous
 62
     7
100
AcDbLine
 10
-1.39339089522157
 20
-3.496727847050734
 30
0.0
 11
-1.39339089522157
 21
-3.32372819305074
 31
0.0
  0
ARC
  5
15BC
330
1592
100
AcDbEntity
  8
0
  6
Continuous
 62
     7
100
AcDbCircle
 10
-1.51839064522157
 20
-3.496727847050734
 30
0.0
 40
0.1249997499999999
100
AcDbArc
 50
180.0
 51
0.0
  0
ARC
  5
15BD
330
1592
100
AcDbEntity
  8
0
  6
Continuous
 62
     7
100
AcDbCircle
 10
-1.51839064522157
 20
-3.32372819305074
 30
0.0
 40
0.1249997499999999
100
AcDbArc
 50
0.0
 51
180.0
  0
LINE
  5
15BE
330
1592
100
AcDbEntity
  8
0
  6
Continuous
 62
     7
100
AcDbLine
 10
-0.6433923952215679
 20
-3.32372819305074
 30
0.0
 11
-0.6433923952215679
 21
-3.496727847050734
 31
0.0
  0
LINE
  5
15BF
330
1592
100
AcDbEntity
  8
0
  6
Continuous
 62
     7
100
AcDbLine
 10
-0.3933928952215666
 20
-3.496727847050734
 30
0.0
 11
-0.3933928952215666
 21
-3.32372819305074
 31
0.0
  0
ARC
  5
15C0
330
1592
100
AcDbEntity
  8
0
  6
Continuous
 62
     7
100
AcDbCircle
 10
-0.5183926452215673
 20
-3.496727847050734
 30
0.0
 40
0.1249997499999999
100
AcDbArc
 50
180.0
 51
0.0
  0
ARC
  5
15C1
330
1592
100
AcDbEntity
  8
0
  6
Continuous
 62
     7
100
AcDbCircle
 10
-0.5183926452215673
 20
-3.32372819305074
 30
0.0
 40
0.1249997499999999
100
AcDbArc
 50
0.0
 51
180.0
  0
ARC
  5
15C2
330
1592
100
AcDbEntity
  8
0
  6
Continuous
 62
     7
100
AcDbCircle
 10
1.481603354778426
 20
-3.32372819305074
 30
0.0
 40
0.1249997500000004
100
AcDbArc
 50
0.0
 51
180.0
  0
ARC
  5
15C3
330
1592
100
AcDbEntity
  8
0
  6
Continuous
 62
     7
100
AcDbCircle
 10
1.481603354778426
 20
-3.496727847050734
 30
0.0
 40
0.1249997500000004
100
AcDbArc
 50
180.0
 51
0.0
  0
LINE
  5
15C4
330
1592
100
AcDbEntity
  8
0
  6
Continuous
 62
     7
100
AcDbLine
 10
1.356603604778428
 20
-3.32372819305074
 30
0.0
 11
1.356603604778428
 21
-3.496727847050734
 31
0.0
  0
LINE
  5
15C5
330
1592
100
AcDbEntity
  8
0
  6
Continuous
 62
     7
100
AcDbLine
 10
0.3566056047784372
 20
-3.32372819305074
 30
0.0
 11
0.3566056047784372
 21
-3.496727847050734
 31
0.0
  0
LINE
  5
15C6
330
1592
100
AcDbEntity
  8
0
  6
Continuous
 62
     7
100
AcDbLine
 10
0.6066051047784386
 20
-3.496727847050734
 30
0.0
 11
0.6066051047784386
 21
-3.32372819305074
 31
0.0
  0
ARC
  5
15C7
330
1592
100
AcDbEntity
  8
0
  6
Continuous
 62
     7
100
AcDbCircle
 10
0.4816053547784378
 20
-3.496727847050734
 30
0.0
 40
0.1249997500000004
100
AcDbArc
 50
180.0
 51
0.0
  0
ARC
  5
15C8
330
1592
100
AcDbEntity
  8
0
  6
Continuous
 62
     7
100
AcDbCircle
 10
0.4816053547784378
 20
-3.32372819305074
 30
0.0
 40
0.1249997500000004
100
AcDbArc
 50
0.0
 51
180.0
  0
LINE
  5
15C9
330
1592
100
AcDbEntity
  8
0
  6
Continuous
 62
     7
100
AcDbLine
 10
1.606603104778429
 20
-3.496727847050734
 30
0.0
 11
1.606603104778429
 21
-3.32372819305074
 31
0.0
  0
LINE
  5
15CA
330
1592
100
AcDbEntity
  8
0
  6
Continuous
 62
     7
100
AcDbLine
 10
3.382745843800306
 20
-2.752470287823965
 30
0.0
 11
3.464449389078423
 21
-2.834173833102083
 31
0.0
  0
ARC
  5
15CB
330
1592
100
AcDbEntity
  8
0
  6
Continuous
 62
     7
100
AcDbCircle
 10
3.334449649078436
 20
-2.739529361450734
 30
0.0
 40
0.0499999000000011
100
AcDbArc
 50
285.0000000000004
 51
345.0000000000005
  0
ARC
  5
15CC
330
1592
100
AcDbEntity
  8
0
  6
Continuous
 62
     7
100
AcDbCircle
 10
3.637599042778433
 20
-3.647427545650741
 30
0.0
 40
0.0939998120000008
100
AcDbArc
 50
270.0000000000008
 51
0.0
  0
ELLIPSE
  5
15CD
330
1592
100
AcDbEntity
  8
0
  6
Continuous
 62
     7
100
AcDbEllipse
 10
3.393738852381133
 20
-2.798818564753446
 30
0.0
 11
0.0612371210950928
 21
-0.061237121095092
 31
0.0
210
0.0
220
0.0
230
1.0
 40
0.5773502691896284
 41
5.759586531581271
 42
6.806784082777896
  0
ARC
  5
15CE
330
1592
100
AcDbEntity
  8
0
  6
Continuous
 62
     7
100
AcDbCircle
 10
3.334449649078436
 20
-2.739529361450734
 30
0.0
 40
0.0499999
100
AcDbArc
 50
270.0000000000008
 51
285.0000000000004
  0
LINE
  5
15CF
330
1592
100
AcDbEntity
  8
0
  6
Continuous
 62
     7
100
AcDbLine
 10
3.429094120729786
 20
-2.869529101450736
 30
0.0
 11
3.347390575451653
 21
-2.787825556172605
 31
0.0
  0
CIRCLE
  5
15D0
330
1592
100
AcDbEntity
  8
0
  6
Continuous
 62
     7
100
AcDbCircle
 10
-3.881598554778435
 20
-3.697427445650743
 30
0.0
 40
0.0532498934999992
210
0.0
220
0.0
230
-1.0
  0
ARC
  5
15D1
330
1592
100
AcDbEntity
  8
0
  6
Continuous
 62
     7
100
AcDbCircle
 10
3.881598554778435
 20
-3.697427445650743
 30
0.0
 40
0.0689998620000006
100
AcDbArc
 50
255.0000000000015
 51
195.0000000000012
  0
ARC
  5
15D2
330
1592
100
AcDbEntity
  8
0
  6
Continuous
 62
     7
100
AcDbCircle
 10
3.334449649078436
 20
-2.739529361450734
 30
0.0
 40
0.0499999000000011
100
AcDbArc
 50
344.9999999999996
 51
0.0000000000008142
  0
LINE
  5
15D3
330
1592
100
AcDbEntity
  8
0
  6
Continuous
 62
     7
100
AcDbLine
 10
-2.090264501471565
 20
2.870259418949258
 30
0.0
 11
-2.946512788971573
 21
2.870259418949258
 31
0.0
  0
LINE
  5
15D4
330
1592
100
AcDbEntity
  8
0
  6
Continuous
 62
     7
100
AcDbLine
 10
-2.946512788971573
 20
2.776509606449266
 30
0.0
 11
-2.090264501471565
 21
2.776509606449266
 31
0.0
  0
LINE
  5
15D5
330
1592
100
AcDbEntity
  8
0
  6
Continuous
 62
     7
100
AcDbLine
 10
-3.419533134243437
 20
2.298101515522489
 30
0.0
 11
-3.501236679521568
 21
2.379805060800606
 31
0.0
  0
ARC
  5
15D6
330
1592
100
AcDbEntity
  8
0
  6
Continuous
 62
     7
100
AcDbCircle
 10
-3.371236939521566
 20
2.285160589149255
 30
0.0
 40
0.0499999000000002
100
AcDbArc
 50
165.0000000000004
 51
180.0
  0
ELLIPSE
  5
15D7
330
1592
100
AcDbEntity
  8
0
  6
Continuous
 62
     7
100
AcDbEllipse
 10
-3.430526142824263
 20
2.344449792451968
 30
0.0
 11
-0.0612371210950923
 21
0.0612371210950928
 31
0.0
210
0.0
220
0.0
230
1.0
 40
0.5773502691896271
 41
5.759586531581311
 42
6.806784082777912
  0
LINE
  5
15D8
330
1592
100
AcDbEntity
  8
0
  6
Continuous
 62
     7
100
AcDbLine
 10
-3.465881411172915
 20
2.415160329149259
 30
0.0
 11
-3.384177865894783
 21
2.333456783871127
 31
0.0
  0
ARC
  5
15D9
330
1592
100
AcDbEntity
  8
0
  6
Continuous
 62
     7
100
AcDbCircle
 10
-3.371236939521566
 20
2.285160589149255
 30
0.0
 40
0.0499999000000002
100
AcDbArc
 50
105.0000000000004
 51
165.0000000000004
  0
ARC
  5
15DA
330
1592
100
AcDbEntity
  8
0
  6
Continuous
 62
     7
100
AcDbCircle
 10
-3.371236939521566
 20
2.285160589149255
 30
0.0
 40
0.0499998999999998
100
AcDbArc
 50
90.0
 51
105.0000000000004
  0
ARC
  5
15DB
330
1592
100
AcDbEntity
  8
0
  6
Continuous
 62
     7
100
AcDbCircle
 10
-3.674386333221562
 20
2.820559518349256
 30
0.0
 40
0.0939998120000008
100
AcDbArc
 50
90.0
 51
180.0
  0
CIRCLE
  5
15DC
330
1592
100
AcDbEntity
  8
0
  6
Continuous
 62
     7
100
AcDbCircle
 10
3.918385845221564
 20
2.802559554349258
 30
0.0
 40
0.0532498934999998
210
0.0
220
0.0
230
-1.0
  0
ARC
  5
15DD
330
1592
100
AcDbEntity
  8
0
  6
Continuous
 62
     7
100
AcDbCircle
 10
-3.918385845221564
 20
2.802559554349258
 30
0.0
 40
0.0689998620000011
100
AcDbArc
 50
255.0000000000015
 51
195.0000000000019
  0
ARC
  5
15DE
330
1592
100
AcDbEntity
  8
0
  6
Continuous
 62
     7
100
AcDbCircle
 10
-2.946512788971573
 20
2.823384512699263
 30
0.0
 40
0.0468749062500005
100
AcDbArc
 50
90.0
 51
270.0000000000008
  0
ARC
  5
15DF
330
1592
100
AcDbEntity
  8
0
  6
Continuous
 62
     7
100
AcDbCircle
 10
-2.090264501471565
 20
2.823384512699263
 30
0.0
 40
0.0468749062500005
100
AcDbArc
 50
270.0000000000017
 51
89.9999999999992
  0
ENDBLK
  5
15E1
330
1592
100
AcDbEntity
  8
0
100
AcDbBlockEnd
  0
BLOCK
  5
1630
330
15E2
100
AcDbEntity
  8
0
100
AcDbBlockBegin
  2
AF-3600
 70
     0
 10
0.0
 20
0.0
 30
0.0
  3
AF-3600
  1

  0
LINE
  5
15E3
330
15E2
100
AcDbEntity
  8
0
  6
Continuous
 62
     7
100
AcDbLine
 10
2.873955709257245
 20
-2.589113007212878
 30
0.0
 11
2.873955709257241
 21
2.690513452831168
 31
0.0
  0
LINE
  5
15E4
330
15E2
100
AcDbEntity
  8
0
  6
Continuous
 62
     7
100
AcDbLine
 10
-3.086583029641435
 20
2.690513452831162
 30
0.0
 11
-3.086583029641431
 21
-2.589113007212878
 31
0.0
  0
LINE
  5
15E5
330
15E2
100
AcDbEntity
  8
0
  6
Continuous
 62
     7
100
AcDbLine
 10
-3.38873242534143
 20
2.841472803593397
 30
0.0
 11
-3.388732425341426
 21
-2.79701277941288
 31
0.0
  0
LINE
  5
15E6
330
15E2
100
AcDbEntity
  8
0
  6
Continuous
 62
     7
100
AcDbLine
 10
3.176105104957258
 20
-2.79701277941288
 30
0.0
 11
3.176105104957258
 21
2.841472803593397
 31
0.0
  0
LINE
  5
15E7
330
15E2
100
AcDbEntity
  8
0
  6
Continuous
 62
     7
100
AcDbLine
 10
2.58871027974925
 20
2.250720023737208
 30
0.0
 11
2.58871027974925
 21
-1.783856844364698
 31
0.0
  0
LINE
  5
15E8
330
15E2
100
AcDbEntity
  8
0
  6
Continuous
 62
     7
100
AcDbLine
 10
2.526806403557245
 20
-1.710620952200883
 30
0.0
 11
2.526806403557245
 21
2.177484131573393
 31
0.0
  0
LINE
  5
15E9
330
15E2
100
AcDbEntity
  8
0
  6
Continuous
 62
     7
100
AcDbLine
 10
-2.739433723941431
 20
2.177484131573393
 30
0.0
 11
-2.739433723941431
 21
-1.710620952200883
 31
0.0
  0
LINE
  5
15EA
330
15E2
100
AcDbEntity
  8
0
  6
Continuous
 62
     7
100
AcDbLine
 10
-2.801337600133429
 20
-1.783856844364698
 30
0.0
 11
-2.801337600133429
 21
2.250720023737208
 31
0.0
  0
ARC
  5
15EB
330
15E2
100
AcDbEntity
  8
0
  6
Continuous
 62
     7
100
AcDbCircle
 10
-1.306313660192092
 20
-2.265413842612884
 30
0.0
 40
0.1249997500000004
100
AcDbArc
 50
0.0
 51
180.0
  0
ARC
  5
15EC
330
15E2
100
AcDbEntity
  8
0
  6
Continuous
 62
     7
100
AcDbCircle
 10
-1.306313660192092
 20
-2.438413496612879
 30
0.0
 40
0.1249997499999999
100
AcDbArc
 50
180.0
 51
0.0
  0
LINE
  5
15ED
330
15E2
100
AcDbEntity
  8
0
  6
Continuous
 62
     7
100
AcDbLine
 10
-2.99258302964143
 20
-2.683113007212881
 30
0.0
 11
2.779955709257243
 21
-2.683113007212881
 31
0.0
  0
LINE
  5
15EE
330
15E2
100
AcDbEntity
  8
0
  6
Continuous
 62
     7
100
AcDbLine
 10
-3.388732425341426
 20
-2.79701277941288
 30
0.0
 11
3.176105104957258
 21
-2.79701277941288
 31
0.0
  0
LINE
  5
15EF
330
15E2
100
AcDbEntity
  8
0
  6
Continuous
 62
     7
100
AcDbLine
 10
2.56135237310107
 20
-1.811214751012883
 30
0.0
 11
-2.773979693485235
 21
-1.811214751012883
 31
0.0
  0
LINE
  5
15F0
330
15E2
100
AcDbEntity
  8
0
  6
Continuous
 62
     7
100
AcDbLine
 10
-2.70074380132142
 20
-1.749310874820884
 30
0.0
 11
2.488116480937256
 21
-1.749310874820884
 31
0.0
  0
CIRCLE
  5
15F1
330
15E2
100
AcDbEntity
  8
0
  6
Continuous
 62
     7
100
AcDbCircle
 10
3.236582729641426
 20
-2.599990426017576
 30
0.0
 40
0.0532498934999998
210
0.0
220
0.0
230
-1.0
  0
ARC
  5
15F2
330
15E2
100
AcDbEntity
  8
0
  6
Continuous
 62
     7
100
AcDbCircle
 10
-3.236582729641426
 20
-2.599990426017576
 30
0.0
 40
0.0689998620000001
100
AcDbArc
 50
255.0000000000015
 51
195.0000000000012
  0
ARC
  5
15F3
330
15E2
100
AcDbEntity
  8
0
  6
Continuous
 62
     7
100
AcDbCircle
 10
-2.99258302964143
 20
-2.589113007212878
 30
0.0
 40
0.094
100
AcDbArc
 50
180.0
 51
270.0
  0
ARC
  5
15F4
330
15E2
100
AcDbEntity
  8
0
  6
Continuous
 62
     7
100
AcDbCircle
 10
-2.106313660192093
 20
-2.438413496612879
 30
0.0
 40
0.1249997499999999
100
AcDbArc
 50
180.0
 51
0.0
  0
ARC
  5
15F5
330
15E2
100
AcDbEntity
  8
0
  6
Continuous
 62
     7
100
AcDbCircle
 10
-2.106313660192093
 20
-2.265413842612884
 30
0.0
 40
0.1249997500000004
100
AcDbArc
 50
0.0
 51
180.0
  0
LINE
  5
15F6
330
15E2
100
AcDbEntity
  8
0
  6
Continuous
 62
     7
100
AcDbLine
 10
-2.231313410192093
 20
-2.265413842612884
 30
0.0
 11
-2.231313410192093
 21
-2.438413496612879
 31
0.0
  0
LINE
  5
15F7
330
15E2
100
AcDbEntity
  8
0
  6
Continuous
 62
     7
100
AcDbLine
 10
-1.431313410192093
 20
-2.265413842612884
 30
0.0
 11
-1.431313410192093
 21
-2.438413496612879
 31
0.0
  0
LINE
  5
15F8
330
15E2
100
AcDbEntity
  8
0
  6
Continuous
 62
     7
100
AcDbLine
 10
-1.98131391019209
 20
-2.438413496612879
 30
0.0
 11
-1.98131391019209
 21
-2.265413842612884
 31
0.0
  0
LINE
  5
15F9
330
15E2
100
AcDbEntity
  8
0
  6
Continuous
 62
     7
100
AcDbLine
 10
-2.801337600133429
 20
-1.783856844364698
 30
0.0
 11
-2.738115396797211
 21
-1.720634641028488
 31
0.0
  0
ARC
  5
15FA
330
15E2
100
AcDbEntity
  8
0
  6
Continuous
 62
     7
100
AcDbCircle
 10
-2.70074380132142
 20
-1.710620952200883
 30
0.0
 40
0.0386899226200004
100
AcDbArc
 50
195.0000000000012
 51
255.0000000000005
  0
ELLIPSE
  5
15FB
330
15E2
100
AcDbEntity
  8
0
  6
Continuous
 62
     7
100
AcDbEllipse
 10
-2.746621786837053
 20
-1.75649893771652
 30
0.0
 11
0.0473852843033824
 21
0.0473852843033822
 31
0.0
210
0.0
220
0.0
230
1.0
 40
0.5773502691896311
 41
2.617993877991513
 42
3.665191429188114
  0
LINE
  5
15FC
330
15E2
100
AcDbEntity
  8
0
  6
Continuous
 62
     7
100
AcDbLine
 10
-2.710757490149021
 20
-1.747992547676665
 30
0.0
 11
-2.773979693485235
 21
-1.811214751012883
 31
0.0
  0
ARC
  5
15FD
330
15E2
100
AcDbEntity
  8
0
  6
Continuous
 62
     7
100
AcDbCircle
 10
-2.70074380132142
 20
-1.710620952200883
 30
0.0
 40
0.03868992262
100
AcDbArc
 50
255.0000000000015
 51
270.0000000000009
  0
ARC
  5
15FE
330
15E2
100
AcDbEntity
  8
0
  6
Continuous
 62
     7
100
AcDbCircle
 10
-2.70074380132142
 20
-1.710620952200883
 30
0.0
 40
0.0386899226200001
100
AcDbArc
 50
180.0
 51
195.0000000000016
  0
ARC
  5
15FF
330
15E2
100
AcDbEntity
  8
0
  6
Continuous
 62
     7
100
AcDbCircle
 10
1.093686339807904
 20
-2.438413496612879
 30
0.0
 40
0.1249997499999999
100
AcDbArc
 50
180.0
 51
0.0
  0
ARC
  5
1600
330
15E2
100
AcDbEntity
  8
0
  6
Continuous
 62
     7
100
AcDbCircle
 10
1.093686339807904
 20
-2.265413842612884
 30
0.0
 40
0.1249997500000004
100
AcDbArc
 50
0.0
 51
180.0
  0
LINE
  5
1601
330
15E2
100
AcDbEntity
  8
0
  6
Continuous
 62
     7
100
AcDbLine
 10
-1.18131391019209
 20
-2.438413496612879
 30
0.0
 11
-1.18131391019209
 21
-2.265413842612884
 31
0.0
  0
LINE
  5
1602
330
15E2
100
AcDbEntity
  8
0
  6
Continuous
 62
     7
100
AcDbLine
 10
-0.381313910192091
 20
-2.438413496612879
 30
0.0
 11
-0.381313910192091
 21
-2.265413842612884
 31
0.0
  0
LINE
  5
1603
330
15E2
100
AcDbEntity
  8
0
  6
Continuous
 62
     7
100
AcDbLine
 10
-0.6313134101920923
 20
-2.265413842612884
 30
0.0
 11
-0.6313134101920923
 21
-2.438413496612879
 31
0.0
  0
ARC
  5
1604
330
15E2
100
AcDbEntity
  8
0
  6
Continuous
 62
     7
100
AcDbCircle
 10
-0.5063136601920917
 20
-2.265413842612884
 30
0.0
 40
0.1249997500000004
100
AcDbArc
 50
0.0
 51
180.0
  0
ARC
  5
1605
330
15E2
100
AcDbEntity
  8
0
  6
Continuous
 62
     7
100
AcDbCircle
 10
-0.5063136601920917
 20
-2.438413496612879
 30
0.0
 40
0.1249997499999999
100
AcDbArc
 50
180.0
 51
0.0
  0
ARC
  5
1606
330
15E2
100
AcDbEntity
  8
0
  6
Continuous
 62
     7
100
AcDbCircle
 10
0.293686339807909
 20
-2.438413496612879
 30
0.0
 40
0.1249997499999999
100
AcDbArc
 50
180.0
 51
0.0
  0
ARC
  5
1607
330
15E2
100
AcDbEntity
  8
0
  6
Continuous
 62
     7
100
AcDbCircle
 10
0.293686339807909
 20
-2.265413842612884
 30
0.0
 40
0.1249997500000004
100
AcDbArc
 50
0.0
 51
180.0
  0
LINE
  5
1608
330
15E2
100
AcDbEntity
  8
0
  6
Continuous
 62
     7
100
AcDbLine
 10
0.1686865898079084
 20
-2.265413842612884
 30
0.0
 11
0.1686865898079084
 21
-2.438413496612879
 31
0.0
  0
LINE
  5
1609
330
15E2
100
AcDbEntity
  8
0
  6
Continuous
 62
     7
100
AcDbLine
 10
0.9686865898079055
 20
-2.265413842612884
 30
0.0
 11
0.9686865898079055
 21
-2.438413496612879
 31
0.0
  0
LINE
  5
160A
330
15E2
100
AcDbEntity
  8
0
  6
Continuous
 62
     7
100
AcDbLine
 10
0.4186860898079098
 20
-2.438413496612879
 30
0.0
 11
0.4186860898079098
 21
-2.265413842612884
 31
0.0
  0
LINE
  5
160B
330
15E2
100
AcDbEntity
  8
0
  6
Continuous
 62
     7
100
AcDbLine
 10
1.218686089807905
 20
-2.438413496612879
 30
0.0
 11
1.218686089807905
 21
-2.265413842612884
 31
0.0
  0
CIRCLE
  5
160C
330
15E2
100
AcDbEntity
  8
0
  6
Continuous
 62
     7
100
AcDbCircle
 10
-1.893686339807906
 20
-2.351913669612883
 30
0.0
 40
0.1374997250000003
210
0.0
220
0.0
230
-1.0
  0
ARC
  5
160D
330
15E2
100
AcDbEntity
  8
0
  6
Continuous
 62
     7
100
AcDbCircle
 10
2.779955709257243
 20
-2.589113007212878
 30
0.0
 40
0.094
100
AcDbArc
 50
270.0
 51
0.0
  0
CIRCLE
  5
160E
330
15E2
100
AcDbEntity
  8
0
  6
Continuous
 62
     7
100
AcDbCircle
 10
-3.023955409257258
 20
-2.599990426017576
 30
0.0
 40
0.0532498934999992
210
0.0
220
0.0
230
-1.0
  0
ARC
  5
160F
330
15E2
100
AcDbEntity
  8
0
  6
Continuous
 62
     7
100
AcDbCircle
 10
3.023955409257258
 20
-2.599990426017576
 30
0.0
 40
0.0689998620000006
100
AcDbArc
 50
255.0000000000015
 51
195.0000000000012
  0
LINE
  5
1610
330
15E2
100
AcDbEntity
  8
0
  6
Continuous
 62
     7
100
AcDbLine
 10
2.52548807641304
 20
-1.720634641028488
 30
0.0
 11
2.58871027974925
 21
-1.783856844364698
 31
0.0
  0
ARC
  5
1611
330
15E2
100
AcDbEntity
  8
0
  6
Continuous
 62
     7
100
AcDbCircle
 10
2.488116480937256
 20
-1.710620952200883
 30
0.0
 40
0.0386899226200008
100
AcDbArc
 50
285.0000000000002
 51
345.0000000000005
  0
ELLIPSE
  5
1612
330
15E2
100
AcDbEntity
  8
0
  6
Continuous
 62
     7
100
AcDbEllipse
 10
2.533994466452879
 20
-1.75649893771652
 30
0.0
 11
0.0473852843033828
 21
-0.0473852843033822
 31
0.0
210
0.0
220
0.0
230
0.9999999999999998
 40
0.5773502691896284
 41
5.759586531581271
 42
6.806784082777896
  0
ARC
  5
1613
330
15E2
100
AcDbEntity
  8
0
  6
Continuous
 62
     7
100
AcDbCircle
 10
2.488116480937256
 20
-1.710620952200883
 30
0.0
 40
0.03868992262
100
AcDbArc
 50
270.0000000000009
 51
285.0000000000002
  0
LINE
  5
1614
330
15E2
100
AcDbEntity
  8
0
  6
Continuous
 62
     7
100
AcDbLine
 10
2.56135237310107
 20
-1.811214751012883
 30
0.0
 11
2.498130169764856
 21
-1.747992547676665
 31
0.0
  0
ARC
  5
1615
330
15E2
100
AcDbEntity
  8
0
  6
Continuous
 62
     7
100
AcDbCircle
 10
2.488116480937256
 20
-1.710620952200883
 30
0.0
 40
0.0386899226200009
100
AcDbArc
 50
344.9999999999996
 51
0.0000000000012213
  0
LINE
  5
1616
330
15E2
100
AcDbEntity
  8
0
  6
Continuous
 62
     7
100
AcDbLine
 10
2.77995570925724
 20
2.784513452831168
 30
0.0
 11
-2.992583029641433
 21
2.784513452831162
 31
0.0
  0
LINE
  5
1617
330
15E2
100
AcDbEntity
  8
0
  6
Continuous
 62
     7
100
AcDbLine
 10
-1.408461385891424
 20
2.739765105435949
 30
0.0
 11
-2.264709673391433
 21
2.739765105435949
 31
0.0
  0
LINE
  5
1618
330
15E2
100
AcDbEntity
  8
0
  6
Continuous
 62
     7
100
AcDbLine
 10
-2.264709673391433
 20
2.646015292935956
 30
0.0
 11
-1.408461385891424
 21
2.646015292935956
 31
0.0
  0
LINE
  5
1619
330
15E2
100
AcDbEntity
  8
0
  6
Continuous
 62
     7
100
AcDbLine
 10
3.176105104957258
 20
2.841472803593397
 30
0.0
 11
-3.38873242534143
 21
2.841472803593397
 31
0.0
  0
LINE
  5
161A
330
15E2
100
AcDbEntity
  8
0
  6
Continuous
 62
     7
100
AcDbLine
 10
-2.773979693485235
 20
2.278077930385393
 30
0.0
 11
2.56135237310107
 21
2.278077930385393
 31
0.0
  0
LINE
  5
161B
330
15E2
100
AcDbEntity
  8
0
  6
Continuous
 62
     7
100
AcDbLine
 10
2.488116480937256
 20
2.216174054193395
 30
0.0
 11
-2.70074380132142
 21
2.216174054193395
 31
0.0
  0
LINE
  5
161C
330
15E2
100
AcDbEntity
  8
0
  6
Continuous
 62
     7
100
AcDbLine
 10
-2.738115396797211
 20
2.187497820400997
 30
0.0
 11
-2.801337600133429
 21
2.250720023737208
 31
0.0
  0
ARC
  5
161D
330
15E2
100
AcDbEntity
  8
0
  6
Continuous
 62
     7
100
AcDbCircle
 10
-2.70074380132142
 20
2.177484131573393
 30
0.0
 40
0.0386899226200002
100
AcDbArc
 50
165.0000000000004
 51
180.0
  0
ELLIPSE
  5
161E
330
15E2
100
AcDbEntity
  8
0
  6
Continuous
 62
     7
100
AcDbEllipse
 10
-2.746621786837053
 20
2.223362117089029
 30
0.0
 11
-0.0473852843033824
 21
0.0473852843033828
 31
0.0
210
0.0
220
0.0
230
1.0
 40
0.5773502691896271
 41
5.759586531581311
 42
6.806784082777912
  0
LINE
  5
161F
330
15E2
100
AcDbEntity
  8
0
  6
Continuous
 62
     7
100
AcDbLine
 10
-2.773979693485235
 20
2.278077930385393
 30
0.0
 11
-2.710757490149021
 21
2.214855727049175
 31
0.0
  0
ARC
  5
1620
330
15E2
100
AcDbEntity
  8
0
  6
Continuous
 62
     7
100
AcDbCircle
 10
-2.70074380132142
 20
2.177484131573393
 30
0.0
 40
0.0386899226200002
100
AcDbArc
 50
105.0000000000001
 51
165.0000000000004
  0
ARC
  5
1621
330
15E2
100
AcDbEntity
  8
0
  6
Continuous
 62
     7
100
AcDbCircle
 10
-2.70074380132142
 20
2.177484131573393
 30
0.0
 40
0.0386899226199999
100
AcDbArc
 50
90.0
 51
105.0000000000001
  0
CIRCLE
  5
1622
330
15E2
100
AcDbEntity
  8
0
  6
Continuous
 62
     7
100
AcDbCircle
 10
3.236582729641423
 20
2.722695788588706
 30
0.0
 40
0.0532498934999998
210
0.0
220
0.0
230
-1.0
  0
ARC
  5
1623
330
15E2
100
AcDbEntity
  8
0
  6
Continuous
 62
     7
100
AcDbCircle
 10
-3.236582729641423
 20
2.722695788588706
 30
0.0
 40
0.0689998620000011
100
AcDbArc
 50
255.0000000000015
 51
195.000000000002
  0
ARC
  5
1624
330
15E2
100
AcDbEntity
  8
0
  6
Continuous
 62
     7
100
AcDbCircle
 10
-2.992583029641433
 20
2.690513452831162
 30
0.0
 40
0.094
100
AcDbArc
 50
90.0
 51
180.0
  0
ARC
  5
1625
330
15E2
100
AcDbEntity
  8
0
  6
Continuous
 62
     7
100
AcDbCircle
 10
-2.264709673391433
 20
2.692890199185953
 30
0.0
 40
0.0468749062500005
100
AcDbArc
 50
90.0
 51
270.0000000000008
  0
ARC
  5
1626
330
15E2
100
AcDbEntity
  8
0
  6
Continuous
 62
     7
100
AcDbCircle
 10
-1.408461385891424
 20
2.692890199185953
 30
0.0
 40
0.0468749062500005
100
AcDbArc
 50
270.0000000000017
 51
89.9999999999992
  0
ARC
  5
1627
330
15E2
100
AcDbEntity
  8
0
  6
Continuous
 62
     7
100
AcDbCircle
 10
3.023955409257258
 20
2.683573119393392
 30
0.0
 40
0.0689998620000009
100
AcDbArc
 50
254.9999999999995
 51
195.000000000002
  0
LINE
  5
1628
330
15E2
100
AcDbEntity
  8
0
  6
Continuous
 62
     7
100
AcDbLine
 10
2.498130169764856
 20
2.214855727049175
 30
0.0
 11
2.56135237310107
 21
2.278077930385393
 31
0.0
  0
ELLIPSE
  5
1629
330
15E2
100
AcDbEntity
  8
0
  6
Continuous
 62
     7
100
AcDbEllipse
 10
2.533994466452879
 20
2.223362117089029
 30
0.0
 11
0.047385284303382
 21
0.0473852843033828
 31
0.0
210
0.0
220
0.0
230
1.0
 40
0.5773502691896116
 41
5.759586531581311
 42
6.80678408277792
  0
LINE
  5
162A
330
15E2
100
AcDbEntity
  8
0
  6
Continuous
 62
     7
100
AcDbLine
 10
2.58871027974925
 20
2.250720023737208
 30
0.0
 11
2.52548807641304
 21
2.187497820400997
 31
0.0
  0
ARC
  5
162B
330
15E2
100
AcDbEntity
  8
0
  6
Continuous
 62
     7
100
AcDbCircle
 10
2.488116480937256
 20
2.177484131573393
 30
0.0
 40
0.0386899226200006
100
AcDbArc
 50
14.99999999999953
 51
75.00000000000051
  0
ARC
  5
162C
330
15E2
100
AcDbEntity
  8
0
  6
Continuous
 62
     7
100
AcDbCircle
 10
2.488116480937256
 20
2.177484131573393
 30
0.0
 40
0.0386899226199995
100
AcDbArc
 50
75.00000000000051
 51
90.0
  0
ARC
  5
162D
330
15E2
100
AcDbEntity
  8
0
  6
Continuous
 62
     7
100
AcDbCircle
 10
2.488116480937256
 20
2.177484131573393
 30
0.0
 40
0.0386899226200006
100
AcDbArc
 50
0.0
 51
14.99999999999953
  0
ARC
  5
162E
330
15E2
100
AcDbEntity
  8
0
  6
Continuous
 62
     7
100
AcDbCircle
 10
2.77995570925724
 20
2.690513452831168
 30
0.0
 40
0.094
100
AcDbArc
 50
0.0
 51
90.0
  0
CIRCLE
  5
162F
330
15E2
100
AcDbEntity
  8
0
  6
Continuous
 62
     7
100
AcDbCircle
 10
-3.023955409257258
 20
2.683573119393392
 30
0.0
 40
0.0532498934999992
210
0.0
220
0.0
230
-1.0
  0
ENDBLK
  5
1631
330
15E2
100
AcDbEntity
  8
0
100
AcDbBlockEnd
  0
BLOCK
  5
1634
330
1632
100
AcDbEntity
  8
0
100
AcDbBlockBegin
  2
AF-3800
 70
     0
 10
0.0
 20
0.0
 30
0.0
  3
AF-3800
  1

  0
INSERT
  5
1633
330
1632
100
AcDbEntity
  8
0
100
AcDbBlockReference
  2
af3500
 10
0.015351874237652
 20
-0.1254190427936521
 30
0.0
  0
ENDBLK
  5
1635
330
1632
100
AcDbEntity
  8
0
100
AcDbBlockEnd
  0
BLOCK
  5
16A3
330
16A2
100
AcDbEntity
  8
0
100
AcDbBlockBegin
  2
SW_CENTERMARKSYMBOL_0
 70
     0
 10
0.0
 20
0.0
 30
0.0
  3
SW_CENTERMARKSYMBOL_0
  1

  0
LINE
  5
16A4
330
16A2
100
AcDbEntity
  8
0
  6
Continuous
 62
     0
370
     0
100
AcDbLine
 10
0.0
 20
0.0
 30
0.0
 11
0.0
 21
2.500000000000002
 31
0.0
  0
LINE
  5
16A5
330
16A2
100
AcDbEntity
  8
0
  6
Continuous
 62
     0
370
     0
100
AcDbLine
 10
0.0
 20
0.0
 30
0.0
 11
-2.500000000000002
 21
0.0
 31
0.0
  0
LINE
  5
16A6
330
16A2
100
AcDbEntity
  8
0
  6
Continuous
 62
     0
370
     0
100
AcDbLine
 10
0.0
 20
0.0
 30
0.0
 11
0.0
 21
-2.500000000000002
 31
0.0
  0
LINE
  5
16A7
330
16A2
100
AcDbEntity
  8
0
  6
Continuous
 62
     0
370
     0
100
AcDbLine
 10
0.0
 20
0.0
 30
0.0
 11
2.500000000000002
 21
0.0
 31
0.0
  0
LINE
  5
16A8
330
16A2
100
AcDbEntity
  8
0
  6
Continuous
 62
     0
370
     0
100
AcDbLine
 10
0.0
 20
5.000000000000004
 30
0.0
 11
0.0
 21
7.262500000000001
 31
0.0
  0
LINE
  5
16A9
330
16A2
100
AcDbEntity
  8
0
  6
Continuous
 62
     0
370
     0
100
AcDbLine
 10
-5.000000000000004
 20
0.0
 30
0.0
 11
-7.262500000000001
 21
0.0
 31
0.0
  0
LINE
  5
16AA
330
16A2
100
AcDbEntity
  8
0
  6
Continuous
 62
     0
370
     0
100
AcDbLine
 10
0.0
 20
-5.000000000000004
 30
0.0
 11
0.0
 21
-7.262500000000001
 31
0.0
  0
LINE
  5
16AB
330
16A2
100
AcDbEntity
  8
0
  6
Continuous
 62
     0
370
     0
100
AcDbLine
 10
5.000000000000004
 20
0.0
 30
0.0
 11
7.262500000000001
 21
0.0
 31
0.0
  0
ENDBLK
  5
16AC
330
16A2
100
AcDbEntity
  8
0
100
AcDbBlockEnd
  0
BLOCK
  5
16AE
330
16AD
100
AcDbEntity
  8
0
100
AcDbBlockBegin
  2
SW_CENTERMARKSYMBOL_1
 70
     0
 10
0.0
 20
0.0
 30
0.0
  3
SW_CENTERMARKSYMBOL_1
  1

  0
LINE
  5
16AF
330
16AD
100
AcDbEntity
  8
0
  6
Continuous
 62
     0
370
     0
100
AcDbLine
 10
0.0
 20
0.0
 30
0.0
 11
0.0
 21
2.500000000000002
 31
0.0
  0
LINE
  5
16B0
330
16AD
100
AcDbEntity
  8
0
  6
Continuous
 62
     0
370
     0
100
AcDbLine
 10
0.0
 20
0.0
 30
0.0
 11
-2.500000000000002
 21
0.0
 31
0.0
  0
LINE
  5
16B1
330
16AD
100
AcDbEntity
  8
0
  6
Continuous
 62
     0
370
     0
100
AcDbLine
 10
0.0
 20
0.0
 30
0.0
 11
0.0
 21
-2.500000000000002
 31
0.0
  0
LINE
  5
16B2
330
16AD
100
AcDbEntity
  8
0
  6
Continuous
 62
     0
370
     0
100
AcDbLine
 10
0.0
 20
0.0
 30
0.0
 11
2.500000000000002
 21
0.0
 31
0.0
  0
LINE
  5
16B3
330
16AD
100
AcDbEntity
  8
0
  6
Continuous
 62
     0
370
     0
100
AcDbLine
 10
0.0
 20
5.000000000000004
 30
0.0
 11
0.0
 21
9.643750000000006
 31
0.0
  0
LINE
  5
16B4
330
16AD
100
AcDbEntity
  8
0
  6
Continuous
 62
     0
370
     0
100
AcDbLine
 10
-5.000000000000004
 20
0.0
 30
0.0
 11
-9.643750000000006
 21
0.0
 31
0.0
  0
LINE
  5
16B5
330
16AD
100
AcDbEntity
  8
0
  6
Continuous
 62
     0
370
     0
100
AcDbLine
 10
0.0
 20
-5.000000000000004
 30
0.0
 11
0.0
 21
-9.643750000000006
 31
0.0
  0
LINE
  5
16B6
330
16AD
100
AcDbEntity
  8
0
  6
Continuous
 62
     0
370
     0
100
AcDbLine
 10
4.999999999999976
 20
0.0
 30
0.0
 11
9.643750000000032
 21
0.0
 31
0.0
  0
ENDBLK
  5
16B7
330
16AD
100
AcDbEntity
  8
0
100
AcDbBlockEnd
  0
BLOCK
  5
16B9
330
16B8
100
AcDbEntity
  8
0
100
AcDbBlockBegin
  2
SW_CENTERMARKSYMBOL_2
 70
     0
 10
0.0
 20
0.0
 30
0.0
  3
SW_CENTERMARKSYMBOL_2
  1

  0
LINE
  5
16BA
330
16B8
100
AcDbEntity
  8
0
  6
Continuous
 62
     0
370
     0
100
AcDbLine
 10
0.0
 20
0.0
 30
0.0
 11
0.0
 21
2.500000000000002
 31
0.0
  0
LINE
  5
16BB
330
16B8
100
AcDbEntity
  8
0
  6
Continuous
 62
     0
370
     0
100
AcDbLine
 10
0.0
 20
0.0
 30
0.0
 11
-2.500000000000002
 21
0.0
 31
0.0
  0
LINE
  5
16BC
330
16B8
100
AcDbEntity
  8
0
  6
Continuous
 62
     0
370
     0
100
AcDbLine
 10
0.0
 20
0.0
 30
0.0
 11
0.0
 21
-2.500000000000002
 31
0.0
  0
LINE
  5
16BD
330
16B8
100
AcDbEntity
  8
0
  6
Continuous
 62
     0
370
     0
100
AcDbLine
 10
0.0
 20
0.0
 30
0.0
 11
2.500000000000002
 21
0.0
 31
0.0
  0
LINE
  5
16BE
330
16B8
100
AcDbEntity
  8
0
  6
Continuous
 62
     0
370
     0
100
AcDbLine
 10
0.0
 20
2.500000000000002
 30
0.0
 11
0.0
 21
4.214500000000009
 31
0.0
  0
LINE
  5
16BF
330
16B8
100
AcDbEntity
  8
0
  6
Continuous
 62
     0
370
     0
100
AcDbLine
 10
-2.500000000000002
 20
0.0
 30
0.0
 11
-4.214500000000009
 21
0.0
 31
0.0
  0
LINE
  5
16C0
330
16B8
100
AcDbEntity
  8
0
  6
Continuous
 62
     0
370
     0
100
AcDbLine
 10
0.0
 20
-2.500000000000002
 30
0.0
 11
0.0
 21
-4.214500000000009
 31
0.0
  0
LINE
  5
16C1
330
16B8
100
AcDbEntity
  8
0
  6
Continuous
 62
     0
370
     0
100
AcDbLine
 10
2.500000000000002
 20
0.0
 30
0.0
 11
4.214500000000009
 21
0.0
 31
0.0
  0
ENDBLK
  5
16C2
330
16B8
100
AcDbEntity
  8
0
100
AcDbBlockEnd
  0
BLOCK
  5
16C4
330
16C3
100
AcDbEntity
  8
0
100
AcDbBlockBegin
  2
SW_CENTERMARKSYMBOL_3
 70
     0
 10
0.0
 20
0.0
 30
0.0
  3
SW_CENTERMARKSYMBOL_3
  1

  0
LINE
  5
16C5
330
16C3
100
AcDbEntity
  8
0
  6
Continuous
 62
     0
370
     0
100
AcDbLine
 10
0.0
 20
0.0
 30
0.0
 11
0.0
 21
2.500000000000002
 31
0.0
  0
LINE
  5
16C6
330
16C3
100
AcDbEntity
  8
0
  6
Continuous
 62
     0
370
     0
100
AcDbLine
 10
0.0
 20
0.0
 30
0.0
 11
-2.500000000000002
 21
0.0
 31
0.0
  0
LINE
  5
16C7
330
16C3
100
AcDbEntity
  8
0
  6
Continuous
 62
     0
370
     0
100
AcDbLine
 10
0.0
 20
0.0
 30
0.0
 11
0.0
 21
-2.500000000000002
 31
0.0
  0
LINE
  5
16C8
330
16C3
100
AcDbEntity
  8
0
  6
Continuous
 62
     0
370
     0
100
AcDbLine
 10
0.0
 20
0.0
 30
0.0
 11
2.500000000000002
 21
0.0
 31
0.0
  0
LINE
  5
16C9
330
16C3
100
AcDbEntity
  8
0
  6
Continuous
 62
     0
370
     0
100
AcDbLine
 10
0.0
 20
2.500000000000002
 30
0.0
 11
0.0
 21
4.214500000000009
 31
0.0
  0
LINE
  5
16CA
330
16C3
100
AcDbEntity
  8
0
  6
Continuous
 62
     0
370
     0
100
AcDbLine
 10
-2.500000000000002
 20
0.0
 30
0.0
 11
-4.214500000000009
 21
0.0
 31
0.0
  0
LINE
  5
16CB
330
16C3
100
AcDbEntity
  8
0
  6
Continuous
 62
     0
370
     0
100
AcDbLine
 10
0.0
 20
-2.500000000000002
 30
0.0
 11
0.0
 21
-4.214500000000009
 31
0.0
  0
LINE
  5
16CC
330
16C3
100
AcDbEntity
  8
0
  6
Continuous
 62
     0
370
     0
100
AcDbLine
 10
2.500000000000002
 20
0.0
 30
0.0
 11
4.214500000000009
 21
0.0
 31
0.0
  0
ENDBLK
  5
16CD
330
16C3
100
AcDbEntity
  8
0
100
AcDbBlockEnd
  0
BLOCK
  5
16CF
330
16CE
100
AcDbEntity
  8
0
 62
     2
100
AcDbBlockBegin
  2
AF-4500
 70
     0
 10
0.0
 20
0.0
 30
0.0
  3
AF-4500
  1

  0
LINE
  5
16D0
330
16CE
100
AcDbEntity
  8
0
  6
Continuous
 62
     7
370
    15
100
AcDbLine
 10
4.010984600878883
 20
0.7046201700209025
 30
0.0
 11
4.010984600878883
 21
-4.250369892729978
 31
0.0
  0
ARC
  5
16D1
330
16CE
100
AcDbEntity
  8
0
  6
Continuous
 62
     7
370
    15
100
AcDbCircle
 10
3.84598505213421
 20
0.7046202006176401
 30
0.0
 40
0.1649996700000012
100
AcDbArc
 50
0.0
 51
90.0
  0
LINE
  5
16D2
330
16CE
100
AcDbEntity
  8
0
  6
Continuous
 62
     7
370
    15
100
AcDbLine
 10
-2.784001712702576
 20
0.8696198405934723
 30
0.0
 11
3.845985076970976
 21
0.8696198405934723
 31
0.0
  0
ARC
  5
16D3
330
16CE
100
AcDbEntity
  8
0
  6
Continuous
 62
     7
370
    15
100
AcDbCircle
 10
-2.78400168786578
 20
0.7046202006176401
 30
0.0
 40
0.1649996700000001
100
AcDbArc
 50
90.0
 51
180.0
  0
LINE
  5
16D4
330
16CE
100
AcDbEntity
  8
0
  6
Continuous
 62
     7
370
    15
100
AcDbLine
 10
-2.949001236610484
 20
-4.250369892729978
 30
0.0
 11
-2.949001236610484
 21
0.7046201700209025
 31
0.0
  0
ARC
  5
16D5
330
16CE
100
AcDbEntity
  8
0
  6
Continuous
 62
     7
370
    15
100
AcDbCircle
 10
-2.78400168786578
 20
-4.250369889382355
 30
0.0
 40
0.1649996700000023
100
AcDbArc
 50
180.0
 51
270.0
  0
LINE
  5
16D6
330
16CE
100
AcDbEntity
  8
0
  6
Continuous
 62
     7
370
    15
100
AcDbLine
 10
3.845985076970976
 20
-4.415369416637858
 30
0.0
 11
-2.784001712702576
 21
-4.415369416637858
 31
0.0
  0
ARC
  5
16D7
330
16CE
100
AcDbEntity
  8
0
  6
Continuous
 62
     7
370
    15
100
AcDbCircle
 10
3.84598505213421
 20
-4.250369889382355
 30
0.0
 40
0.1649996700000012
100
AcDbArc
 50
270.0
 51
0.0
  0
ARC
  5
16D8
330
16CE
100
AcDbEntity
  8
0
  6
Continuous
 62
     7
370
    15
100
AcDbCircle
 10
2.430987882134187
 20
-4.965781844382362
 30
0.0
 40
0.1299997400000019
100
AcDbArc
 50
0.0
 51
180.0
  0
LINE
  5
16D9
330
16CE
100
AcDbEntity
  8
0
  6
Continuous
 62
     7
370
    15
100
AcDbLine
 10
2.300988108276951
 20
-4.96578201071783
 30
0.0
 11
2.300988108276951
 21
-5.138781212879862
 31
0.0
  0
ARC
  5
16DA
330
16CE
100
AcDbEntity
  8
0
  6
Continuous
 62
     7
370
    15
100
AcDbCircle
 10
2.430987882134187
 20
-5.138781498382356
 30
0.0
 40
0.1299997400000008
100
AcDbArc
 50
180.0
 51
0.0
  0
LINE
  5
16DB
330
16CE
100
AcDbEntity
  8
0
  6
Continuous
 62
     7
370
    15
100
AcDbLine
 10
2.560987624734279
 20
-5.138781212879862
 30
0.0
 11
2.560987624734279
 21
-4.96578201071783
 31
0.0
  0
ARC
  5
16DC
330
16CE
100
AcDbEntity
  8
0
  6
Continuous
 62
     7
370
    15
100
AcDbCircle
 10
1.4809897821342
 20
-4.965781844382362
 30
0.0
 40
0.1299997399999997
100
AcDbArc
 50
0.0
 51
180.0
  0
LINE
  5
16DD
330
16CE
100
AcDbEntity
  8
0
  6
Continuous
 62
     7
370
    15
100
AcDbLine
 10
1.350990016091259
 20
-4.96578201071783
 30
0.0
 11
1.350990016091259
 21
-5.138781212879862
 31
0.0
  0
ARC
  5
16DE
330
16CE
100
AcDbEntity
  8
0
  6
Continuous
 62
     7
370
    15
100
AcDbCircle
 10
1.4809897821342
 20
-5.138781498382356
 30
0.0
 40
0.1299997400000008
100
AcDbArc
 50
180.0
 51
0.0
  0
LINE
  5
16DF
330
16CE
100
AcDbEntity
  8
0
  6
Continuous
 62
     7
370
    15
100
AcDbLine
 10
1.610989532548558
 20
-5.138781212879862
 30
0.0
 11
1.610989532548558
 21
-4.96578201071783
 31
0.0
  0
ARC
  5
16E0
330
16CE
100
AcDbEntity
  8
0
  6
Continuous
 62
     7
370
    15
100
AcDbCircle
 10
0.5309916821342143
 20
-4.965781844382362
 30
0.0
 40
0.1299997400000008
100
AcDbArc
 50
0.0
 51
180.0
  0
LINE
  5
16E1
330
16CE
100
AcDbEntity
  8
0
  6
Continuous
 62
     7
370
    15
100
AcDbLine
 10
0.400991942238619
 20
-4.96578201071783
 30
0.0
 11
0.400991942238619
 21
-5.138781212879862
 31
0.0
  0
ARC
  5
16E2
330
16CE
100
AcDbEntity
  8
0
  6
Continuous
 62
     7
370
    15
100
AcDbCircle
 10
0.5309916821342143
 20
-5.138781498382356
 30
0.0
 40
0.1299997400000019
100
AcDbArc
 50
180.0
 51
0.0
  0
LINE
  5
16E3
330
16CE
100
AcDbEntity
  8
0
  6
Continuous
 62
     7
370
    15
100
AcDbLine
 10
0.660991422029781
 20
-5.138781212879862
 30
0.0
 11
0.660991422029781
 21
-4.96578201071783
 31
0.0
  0
ARC
  5
16E4
330
16CE
100
AcDbEntity
  8
0
  6
Continuous
 62
     7
370
    15
100
AcDbCircle
 10
-0.419006417865802
 20
-4.965781844382362
 30
0.0
 40
0.1299997400000008
100
AcDbArc
 50
0.0
 51
180.0
  0
LINE
  5
16E5
330
16CE
100
AcDbEntity
  8
0
  6
Continuous
 62
     7
370
    15
100
AcDbLine
 10
-0.5490061682801583
 20
-4.96578201071783
 30
0.0
 11
-0.5490061682801583
 21
-5.138781212879862
 31
0.0
  0
ARC
  5
16E6
330
16CE
100
AcDbEntity
  8
0
  6
Continuous
 62
     7
370
    15
100
AcDbCircle
 10
-0.419006417865802
 20
-5.138781498382356
 30
0.0
 40
0.1299997400000008
100
AcDbArc
 50
180.0
 51
0.0
  0
LINE
  5
16E7
330
16CE
100
AcDbEntity
  8
0
  6
Continuous
 62
     7
370
    15
100
AcDbLine
 10
-0.2890066518228309
 20
-5.138781212879862
 30
0.0
 11
-0.2890066518228309
 21
-4.96578201071783
 31
0.0
  0
ARC
  5
16E8
330
16CE
100
AcDbEntity
  8
0
  6
Continuous
 62
     7
370
    15
100
AcDbCircle
 10
-1.369004517865789
 20
-4.965781844382362
 30
0.0
 40
0.1299997400000003
100
AcDbArc
 50
0.0
 51
180.0
  0
LINE
  5
16E9
330
16CE
100
AcDbEntity
  8
0
  6
Continuous
 62
     7
370
    15
100
AcDbLine
 10
-1.499004260465879
 20
-4.96578201071783
 30
0.0
 11
-1.499004260465879
 21
-5.138781212879862
 31
0.0
  0
ARC
  5
16EA
330
16CE
100
AcDbEntity
  8
0
  6
Continuous
 62
     7
370
    15
100
AcDbCircle
 10
-1.369004517865789
 20
-5.138781498382356
 30
0.0
 40
0.1299997400000008
100
AcDbArc
 50
180.0
 51
0.0
  0
LINE
  5
16EB
330
16CE
100
AcDbEntity
  8
0
  6
Continuous
 62
     7
370
    15
100
AcDbLine
 10
-1.239004744008552
 20
-5.138781212879862
 30
0.0
 11
-1.239004744008552
 21
-4.96578201071783
 31
0.0
  0
ARC
  5
16EC
330
16CE
100
AcDbEntity
  8
0
  6
Continuous
 62
     7
370
    15
100
AcDbCircle
 10
-3.65649994286579
 20
1.527315405617641
 30
0.0
 40
0.0349999299999999
100
AcDbArc
 50
90.0
 51
180.0
  0
LINE
  5
16ED
330
16CE
100
AcDbEntity
  8
0
  6
Continuous
 62
     7
370
    15
100
AcDbLine
 10
4.718483279443915
 20
1.562315334564585
 30
0.0
 11
-3.656499915175515
 21
1.562315334564585
 31
0.0
  0
ARC
  5
16EE
330
16CE
100
AcDbEntity
  8
0
  6
Continuous
 62
     7
370
    15
100
AcDbCircle
 10
4.71848330713419
 20
1.527315405617641
 30
0.0
 40
0.0349999300000015
100
AcDbArc
 50
0.0
 51
90.0
  0
LINE
  5
16EF
330
16CE
100
AcDbEntity
  8
0
  6
Continuous
 62
     7
370
    15
100
AcDbLine
 10
4.753483338452497
 20
-5.840779965980502
 30
0.0
 11
4.753483338452497
 21
1.527315406179225
 31
0.0
  0
ARC
  5
16F0
330
16CE
100
AcDbEntity
  8
0
  6
Continuous
 62
     7
370
    15
100
AcDbCircle
 10
4.71848330713419
 20
-5.840780094382367
 30
0.0
 40
0.0349999300000026
100
AcDbArc
 50
270.0
 51
0.0
  0
LINE
  5
16F1
330
16CE
100
AcDbEntity
  8
0
  6
Continuous
 62
     7
370
    15
100
AcDbLine
 10
-3.656499915175515
 20
-5.875780024989111
 30
0.0
 11
4.718483279443915
 21
-5.875780024989111
 31
0.0
  0
ARC
  5
16F2
330
16CE
100
AcDbEntity
  8
0
  6
Continuous
 62
     7
370
    15
100
AcDbCircle
 10
-3.65649994286579
 20
-5.840780094382367
 30
0.0
 40
0.0349999300000007
100
AcDbArc
 50
180.0
 51
270.0
  0
LINE
  5
16F3
330
16CE
100
AcDbEntity
  8
0
  6
Continuous
 62
     7
370
    15
100
AcDbLine
 10
-3.691499974184096
 20
1.527315406179225
 30
0.0
 11
-3.691499974184096
 21
-5.840779965980502
 31
0.0
  0
CIRCLE
  5
16F4
330
16CE
100
AcDbEntity
  8
0
  6
Continuous
 62
     7
370
    15
100
AcDbCircle
 10
3.540635662834203
 20
-5.044781686382363
 30
0.0
 40
0.3112493775000011
  0
CIRCLE
  5
16F5
330
16CE
100
AcDbEntity
  8
0
  6
Continuous
 62
     7
370
    15
100
AcDbCircle
 10
-2.459352337165794
 20
-5.044781686382363
 30
0.0
 40
0.2174995649999996
  0
LINE
  5
16F6
330
16CE
100
AcDbEntity
  8
0
  6
Continuous
 62
     7
370
    15
100
AcDbLine
 10
-2.439002388172212
 20
1.408690635045457
 30
0.0
 11
-1.519004189424578
 21
1.408690635045457
 31
0.0
  0
ARC
  5
16F7
330
16CE
100
AcDbEntity
  8
0
  6
Continuous
 62
     7
370
    15
100
AcDbCircle
 10
-2.43900237786579
 20
1.328690802867654
 30
0.0
 40
0.0799998400000016
100
AcDbArc
 50
90.0
 51
270.0
  0
LINE
  5
16F8
330
16CE
100
AcDbEntity
  8
0
  6
Continuous
 62
     7
370
    15
100
AcDbLine
 10
-1.519004189424578
 20
1.248690946712557
 30
0.0
 11
-2.439002388172212
 21
1.248690946712557
 31
0.0
  0
ARC
  5
16F9
330
16CE
100
AcDbEntity
  8
0
  6
Continuous
 62
     7
370
    15
100
AcDbCircle
 10
-1.519004217865784
 20
1.328690802867654
 30
0.0
 40
0.0799998400000016
100
AcDbArc
 50
270.0
 51
90.0
  0
CIRCLE
  5
16FA
330
16CE
100
AcDbEntity
  8
0
  6
Continuous
 62
     7
370
    15
100
AcDbCircle
 10
-2.781501692865788
 20
-5.653280469382353
 30
0.0
 40
0.0674998650000006
  0
CIRCLE
  5
16FB
330
16CE
100
AcDbEntity
  8
0
  6
Continuous
 62
     7
370
    15
100
AcDbCircle
 10
3.843485057134187
 20
1.339815780617655
 30
0.0
 40
0.0674998650000006
  0
LINE
  5
16FC
330
16CE
100
AcDbEntity
  8
0
  6
Continuous
 62
     7
370
    15
100
AcDbLine
 10
4.718483279443915
 20
-5.965779925300338
 30
0.0
 11
-3.656499915175515
 21
-5.965779925300338
 31
0.0
  0
LINE
  5
16FD
330
16CE
100
AcDbEntity
  8
0
  6
Continuous
 62
     7
370
    15
100
AcDbLine
 10
-3.656499915175515
 20
-5.965779925300338
 30
0.0
 11
-3.656499915175515
 21
-5.875780024989111
 31
0.0
  0
LINE
  5
16FE
330
16CE
100
AcDbEntity
  8
0
  6
Continuous
 62
     7
370
    15
100
AcDbLine
 10
4.718483279443915
 20
-5.965779925300338
 30
0.0
 11
4.718483279443915
 21
-5.875780024989111
 31
0.0
  0
ARC
  5
16FF
330
16CE
100
AcDbEntity
  8
0
  6
Continuous
 62
     7
370
    15
100
AcDbCircle
 10
4.71848330713419
 20
-5.840780094382367
 30
0.0
 40
0.1249997500000027
100
AcDbArc
 50
270.0
 51
0.0
  0
LINE
  5
1700
330
16CE
100
AcDbEntity
  8
0
  6
Continuous
 62
     7
370
    15
100
AcDbLine
 10
4.843482945434374
 20
-5.840779965980502
 30
0.0
 11
4.753483338452497
 21
-5.840779965980502
 31
0.0
  0
LINE
  5
1701
330
16CE
100
AcDbEntity
  8
0
  6
Continuous
 62
     7
370
    15
100
AcDbLine
 10
3.845985076970976
 20
-4.415369416637858
 30
0.0
 11
3.845985076970976
 21
-4.335369700803013
 31
0.0
  0
ARC
  5
1702
330
16CE
100
AcDbEntity
  8
0
  6
Continuous
 62
     7
370
    15
100
AcDbCircle
 10
3.84598505213421
 20
-4.250369889382355
 30
0.0
 40
0.0849998299999997
100
AcDbArc
 50
270.0
 51
0.0
  0
LINE
  5
1703
330
16CE
100
AcDbEntity
  8
0
  6
Continuous
 62
     7
370
    15
100
AcDbLine
 10
4.010984600878883
 20
-4.250369892729978
 30
0.0
 11
3.930984885044038
 21
-4.250369892729978
 31
0.0
  0
LINE
  5
1704
330
16CE
100
AcDbEntity
  8
0
  6
Continuous
 62
     7
370
    15
100
AcDbLine
 10
-2.784001712702576
 20
-4.335369700803013
 30
0.0
 11
3.845985076970976
 21
-4.335369700803013
 31
0.0
  0
LINE
  5
1705
330
16CE
100
AcDbEntity
  8
0
  6
Continuous
 62
     7
370
    15
100
AcDbLine
 10
-2.784001712702576
 20
-4.335369700803013
 30
0.0
 11
-2.784001712702576
 21
-4.415369416637858
 31
0.0
  0
LINE
  5
1706
330
16CE
100
AcDbEntity
  8
0
  6
Continuous
 62
     7
370
    15
100
AcDbLine
 10
4.843482945434374
 20
1.527315406179225
 30
0.0
 11
4.843482945434374
 21
-5.840779965980502
 31
0.0
  0
LINE
  5
1707
330
16CE
100
AcDbEntity
  8
0
  6
Continuous
 62
     7
370
    15
100
AcDbLine
 10
4.843482945434374
 20
1.527315406179225
 30
0.0
 11
4.753483338452497
 21
1.527315406179225
 31
0.0
  0
ARC
  5
1708
330
16CE
100
AcDbEntity
  8
0
  6
Continuous
 62
     7
370
    15
100
AcDbCircle
 10
-3.65649994286579
 20
-5.840780094382367
 30
0.0
 40
0.1249997500000004
100
AcDbArc
 50
180.0
 51
270.0
  0
LINE
  5
1709
330
16CE
100
AcDbEntity
  8
0
  6
Continuous
 62
     7
370
    15
100
AcDbLine
 10
-3.691499974184096
 20
-5.840779965980502
 30
0.0
 11
-3.781499581165972
 21
-5.840779965980502
 31
0.0
  0
LINE
  5
170A
330
16CE
100
AcDbEntity
  8
0
  6
Continuous
 62
     7
370
    15
100
AcDbLine
 10
-3.656499915175515
 20
1.562315334564585
 30
0.0
 11
-3.656499915175515
 21
1.652315154668585
 31
0.0
  0
LINE
  5
170B
330
16CE
100
AcDbEntity
  8
0
  6
Continuous
 62
     7
370
    15
100
AcDbLine
 10
-3.656499915175515
 20
1.652315154668585
 30
0.0
 11
4.718483279443915
 21
1.652315154668585
 31
0.0
  0
LINE
  5
170C
330
16CE
100
AcDbEntity
  8
0
  6
Continuous
 62
     7
370
    15
100
AcDbLine
 10
4.718483279443915
 20
1.562315334564585
 30
0.0
 11
4.718483279443915
 21
1.652315154668585
 31
0.0
  0
ARC
  5
170D
330
16CE
100
AcDbEntity
  8
0
  6
Continuous
 62
     7
370
    15
100
AcDbCircle
 10
4.71848330713419
 20
1.527315405617641
 30
0.0
 40
0.1249997500000004
100
AcDbArc
 50
0.0
 51
90.0
  0
LINE
  5
170E
330
16CE
100
AcDbEntity
  8
0
  6
Continuous
 62
     7
370
    15
100
AcDbLine
 10
-3.781499581165972
 20
-5.840779965980502
 30
0.0
 11
-3.781499581165972
 21
1.527315406179225
 31
0.0
  0
LINE
  5
170F
330
16CE
100
AcDbEntity
  8
0
  6
Continuous
 62
     7
370
    15
100
AcDbLine
 10
-3.691499974184096
 20
1.527315406179225
 30
0.0
 11
-3.781499581165972
 21
1.527315406179225
 31
0.0
  0
ARC
  5
1710
330
16CE
100
AcDbEntity
  8
0
  6
Continuous
 62
     7
370
    15
100
AcDbCircle
 10
-2.78400168786578
 20
-4.250369889382355
 30
0.0
 40
0.0849998300000003
100
AcDbArc
 50
180.0
 51
270.0
  0
LINE
  5
1711
330
16CE
100
AcDbEntity
  8
0
  6
Continuous
 62
     7
370
    15
100
AcDbLine
 10
-2.869001520775611
 20
-4.250369892729978
 30
0.0
 11
-2.949001236610484
 21
-4.250369892729978
 31
0.0
  0
LINE
  5
1712
330
16CE
100
AcDbEntity
  8
0
  6
Continuous
 62
     7
370
    15
100
AcDbLine
 10
-2.869001520775611
 20
0.7046201700209025
 30
0.0
 11
-2.869001520775611
 21
-4.250369892729978
 31
0.0
  0
LINE
  5
1713
330
16CE
100
AcDbEntity
  8
0
  6
Continuous
 62
     7
370
    15
100
AcDbLine
 10
-2.869001520775611
 20
0.7046201700209025
 30
0.0
 11
-2.949001236610484
 21
0.7046201700209025
 31
0.0
  0
LINE
  5
1714
330
16CE
100
AcDbEntity
  8
0
  6
Continuous
 62
     7
370
    15
100
AcDbLine
 10
3.930984885044038
 20
-4.250369892729978
 30
0.0
 11
3.930984885044038
 21
0.7046201700209025
 31
0.0
  0
LINE
  5
1715
330
16CE
100
AcDbEntity
  8
0
  6
Continuous
 62
     7
370
    15
100
AcDbLine
 10
4.010984600878883
 20
0.7046201700209025
 30
0.0
 11
3.930984885044038
 21
0.7046201700209025
 31
0.0
  0
ARC
  5
1716
330
16CE
100
AcDbEntity
  8
0
  6
Continuous
 62
     7
370
    15
100
AcDbCircle
 10
3.84598505213421
 20
0.7046202006176401
 30
0.0
 40
0.0849998300000008
100
AcDbArc
 50
0.0
 51
90.0
  0
LINE
  5
1717
330
16CE
100
AcDbEntity
  8
0
  6
Continuous
 62
     7
370
    15
100
AcDbLine
 10
3.845985076970976
 20
0.8696198405934723
 30
0.0
 11
3.845985076970976
 21
0.7896200514262972
 31
0.0
  0
ARC
  5
1718
330
16CE
100
AcDbEntity
  8
0
  6
Continuous
 62
     7
370
    15
100
AcDbCircle
 10
-2.78400168786578
 20
0.7046202006176401
 30
0.0
 40
0.0849998299999997
100
AcDbArc
 50
90.0
 51
180.0
  0
LINE
  5
1719
330
16CE
100
AcDbEntity
  8
0
  6
Continuous
 62
     7
370
    15
100
AcDbLine
 10
-2.784001712702576
 20
0.7896200514262972
 30
0.0
 11
-2.784001712702576
 21
0.8696198405934723
 31
0.0
  0
LINE
  5
171A
330
16CE
100
AcDbEntity
  8
0
  6
Continuous
 62
     7
370
    15
100
AcDbLine
 10
3.845985076970976
 20
0.7896200514262972
 30
0.0
 11
-2.784001712702576
 21
0.7896200514262972
 31
0.0
  0
ARC
  5
171B
330
16CE
100
AcDbEntity
  8
0
  6
Continuous
 62
     7
370
    15
100
AcDbCircle
 10
-3.65649994286579
 20
1.527315405617641
 30
0.0
 40
0.1249997500000004
100
AcDbArc
 50
90.0
 51
180.0
  0
LINE
  5
171C
330
16CE
100
AcDbEntity
  8
0
  6
Continuous
 62
     7
370
    15
100
AcDbLine
 10
-1.519004189424578
 20
1.378690704941234
 30
0.0
 11
-2.439002388172212
 21
1.378690704941234
 31
0.0
  0
LINE
  5
171D
330
16CE
100
AcDbEntity
  8
0
  6
Continuous
 62
     7
370
    15
100
AcDbLine
 10
-2.439002388172212
 20
1.378690704941234
 30
0.0
 11
-2.439002388172212
 21
1.408690635045457
 31
0.0
  0
LINE
  5
171E
330
16CE
100
AcDbEntity
  8
0
  6
Continuous
 62
     7
370
    15
100
AcDbLine
 10
-1.519004189424578
 20
1.408690635045457
 30
0.0
 11
-1.519004189424578
 21
1.378690704941234
 31
0.0
  0
ARC
  5
171F
330
16CE
100
AcDbEntity
  8
0
  6
Continuous
 62
     7
370
    15
100
AcDbCircle
 10
-2.43900237786579
 20
1.328690802867654
 30
0.0
 40
0.0499999000000004
100
AcDbArc
 50
90.0
 51
270.0
  0
LINE
  5
1720
330
16CE
100
AcDbEntity
  8
0
  6
Continuous
 62
     7
370
    15
100
AcDbLine
 10
-2.439002388172212
 20
1.278690913482975
 30
0.0
 11
-2.439002388172212
 21
1.248690946712557
 31
0.0
  0
LINE
  5
1721
330
16CE
100
AcDbEntity
  8
0
  6
Continuous
 62
     7
370
    15
100
AcDbLine
 10
-2.439002388172212
 20
1.278690913482975
 30
0.0
 11
-1.519004189424578
 21
1.278690913482975
 31
0.0
  0
LINE
  5
1722
330
16CE
100
AcDbEntity
  8
0
  6
Continuous
 62
     7
370
    15
100
AcDbLine
 10
-1.519004189424578
 20
1.248690946712557
 30
0.0
 11
-1.519004189424578
 21
1.278690913482975
 31
0.0
  0
ARC
  5
1723
330
16CE
100
AcDbEntity
  8
0
  6
Continuous
 62
     7
370
    15
100
AcDbCircle
 10
-1.519004217865784
 20
1.328690802867654
 30
0.0
 40
0.0499999000000004
100
AcDbArc
 50
270.0
 51
90.0
  0
CIRCLE
  5
1724
330
16CE
100
AcDbEntity
  8
0
  6
Continuous
 62
     7
370
    15
100
AcDbCircle
 10
3.540635662834203
 20
-5.044781686382363
 30
0.0
 40
0.2812494375000005
  0
CIRCLE
  5
1725
330
16CE
100
AcDbEntity
  8
0
  6
Continuous
 62
     7
370
    15
100
AcDbCircle
 10
-2.459352337165794
 20
-5.044781686382363
 30
0.0
 40
0.1874996250000001
  0
INSERT
  5
1726
330
16CE
100
AcDbEntity
  8
0
  6
Continuous
 62
     7
370
     0
100
AcDbBlockReference
  2
SW_CENTERMARKSYMBOL_0
 10
-2.459352337165794
 20
-5.044781686382363
 30
0.0
 41
0.039369999999991
 42
0.039369999999991
 43
0.03937
  0
INSERT
  5
1727
330
16CE
100
AcDbEntity
  8
0
  6
Continuous
 62
     7
370
     0
100
AcDbBlockReference
  2
SW_CENTERMARKSYMBOL_1
 10
3.540635662834203
 20
-5.044781686382363
 30
0.0
 41
0.039369999999991
 42
0.039369999999991
 43
0.03937
  0
INSERT
  5
1728
330
16CE
100
AcDbEntity
  8
0
  6
Continuous
 62
     7
370
     0
100
AcDbBlockReference
  2
SW_CENTERMARKSYMBOL_2
 10
-2.781501692865788
 20
-5.653280469382353
 30
0.0
 41
0.039369999999991
 42
0.039369999999991
 43
0.03937
  0
INSERT
  5
1729
330
16CE
100
AcDbEntity
  8
0
  6
Continuous
 62
     7
370
     0
100
AcDbBlockReference
  2
SW_CENTERMARKSYMBOL_3
 10
3.843485057134187
 20
1.339815780617655
 30
0.0
 41
0.039369999999991
 42
0.039369999999991
 43
0.03937
  0
ENDBLK
  5
172A
330
16CE
100
AcDbEntity
  8
0
 62
     2
100
AcDbBlockEnd
  0
BLOCK
  5
175A
330
1759
100
AcDbEntity
  8
0
100
AcDbBlockBegin
  2
AOAPRO
 70
     0
 10
0.0
 20
0.0
 30
0.0
  3
AOAPRO
  1

  0
LINE
  5
175B
330
1759
100
AcDbEntity
  8
0
100
AcDbLine
 10
-0.3813116469596238
 20
-1.053677591089628
 30
0.0
 11
0.4506883530403698
 21
-1.053676759088794
 31
0.0
  0
LINE
  5
175C
330
1759
100
AcDbEntity
  8
0
100
AcDbLine
 10
-0.3813118349598099
 20
1.206322408911304
 30
0.0
 11
0.4506881650401767
 21
1.206323240912144
 31
0.0
  0
LINE
  5
175D
330
1759
100
AcDbEntity
  8
0
100
AcDbLine
 10
-0.4753117409597182
 20
1.112322408911353
 30
0.0
 11
-0.4753117409597182
 21
-0.9596775910896797
 31
0.0
  0
CIRCLE
  5
175E
330
1759
100
AcDbEntity
  8
0
100
AcDbCircle
 10
-0.6653112409597171
 20
-1.023678675088742
 30
0.0
 40
0.0625
  0
ARC
  5
175F
330
1759
100
AcDbEntity
  8
0
100
AcDbCircle
 10
-0.3813117409597169
 20
-0.9596775910896797
 30
0.0
 40
0.094
100
AcDbArc
 50
180.0
 51
270.0000572958368
  0
CIRCLE
  5
1760
330
1759
100
AcDbEntity
  8
0
100
AcDbCircle
 10
-0.6653112409597171
 20
1.176319324911258
 30
0.0
 40
0.0625
  0
ARC
  5
1761
330
1759
100
AcDbEntity
  8
0
100
AcDbCircle
 10
-0.3813117409597169
 20
1.112322408911353
 30
0.0
 40
0.094
100
AcDbArc
 50
90.00005729583676
 51
180.0
  0
LINE
  5
1762
330
1759
100
AcDbEntity
  8
0
100
AcDbLine
 10
0.5446882590402709
 20
1.112323240912192
 30
0.0
 11
0.544688259040278
 21
-0.9596767590888431
 31
0.0
  0
CIRCLE
  5
1763
330
1759
100
AcDbEntity
  8
0
100
AcDbCircle
 10
0.7346887590402817
 20
-1.023676675088744
 30
0.0
 40
0.0625
  0
ARC
  5
1764
330
1759
100
AcDbEntity
  8
0
100
AcDbCircle
 10
0.4506882590402769
 20
-0.9596767590888431
 30
0.0
 40
0.094
100
AcDbArc
 50
270.0000572958368
 51
0.0000000000002036
  0
CIRCLE
  5
1765
330
1759
100
AcDbEntity
  8
0
100
AcDbCircle
 10
0.7346887590402817
 20
1.176321324911254
 30
0.0
 40
0.0625
  0
ARC
  5
1766
330
1759
100
AcDbEntity
  8
0
100
AcDbCircle
 10
0.4506882590402699
 20
1.112323240912192
 30
0.0
 40
0.094
100
AcDbArc
 50
0.0
 51
90.00005729583717
  0
ENDBLK
  5
1767
330
1759
100
AcDbEntity
  8
0
100
AcDbBlockEnd
  0
BLOCK
  5
1769
330
1768
100
AcDbEntity
  8
0
100
AcDbBlockBegin
  2
KEYSWITCH
 70
     0
 10
0.0
 20
0.0
 30
0.0
  3
KEYSWITCH
  1

  0
ARC
  5
176A
330
1768
100
AcDbEntity
  8
0
100
AcDbCircle
 10
0.0
 20
0.0
 30
0.0
 40
0.4400000000000003
100
AcDbArc
 50
211.3179223819428
 51
195.642962855774
  0
LINE
  5
176B
330
1768
100
AcDbEntity
  8
0
100
AcDbLine
 10
-0.3319830722355199
 20
-0.0787988634324819
 30
0.0
 11
-0.4237026852597341
 21
-0.1186424650104278
 31
0.0
  0
LINE
  5
176C
330
1768
100
AcDbEntity
  8
0
100
AcDbLine
 10
-0.2841707503420103
 20
-0.1888623990614455
 30
0.0
 11
-0.3758903633661532
 21
-0.2287060006393773
 31
0.0
  0
LINE
  5
176D
330
1768
100
AcDbEntity
  8
0
100
AcDbLine
 10
-0.2841707503420103
 20
-0.1888623990614455
 30
0.0
 11
-0.3319830722355199
 21
-0.0787988634324819
 31
0.0
  0
ENDBLK
  5
176E
330
1768
100
AcDbEntity
  8
0
100
AcDbBlockEnd
  0
BLOCK
  5
1770
330
176F
100
AcDbEntity
  8
0
100
AcDbBlockBegin
  2
MASTERSWITCH
 70
     0
 10
0.0
 20
0.0
 30
0.0
  3
MASTERSWITCH
  1

  0
LWPOLYLINE
  5
1771
330
176F
100
AcDbEntity
  8
0
100
AcDbPolyline
 90
        4
 70
     1
 43
0.0
 10
-0.3475000000000001
 20
0.0
 10
0.3475000000000001
 20
0.0
 10
0.3475000000000001
 20
1.269999999999998
 10
-0.3475000000000001
 20
1.269999999999998
  0
ENDBLK
  5
1772
330
176F
100
AcDbEntity
  8
0
100
AcDbBlockEnd
  0
BLOCK
  5
1774
330
1773
100
AcDbEntity
  8
0
100
AcDbBlockBegin
  2
Switch
 70
     0
 10
0.0
 20
0.0
 30
0.0
  3
Switch
  1

  0
LWPOLYLINE
  5
1775
330
1773
100
AcDbEntity
  8
0
100
AcDbPolyline
 90
        4
 70
     1
 43
0.0
 10
0.0
 20
0.0
 10
0.754999999999999
 20
0.0
 10
0.754999999999999
 20
1.155000000000001
 10
0.0
 20
1.155000000000001
  0
ENDBLK
  5
1776
330
1773
100
AcDbEntity
  8
0
100
AcDbBlockEnd
  0
BLOCK
  5
1778
330
1777
100
AcDbEntity
  8
0
100
AcDbBlockBegin
  2
OXYGEN
 70
     0
 10
0.0
 20
0.0
 30
0.0
  3
OXYGEN
  1

  0
LINE
  5
1779
330
1777
100
AcDbEntity
  8
0
100
AcDbLine
 10
1.033198089779034
 20
1.284510998457458
 30
0.0
 11
0.7651980897790338
 21
1.554510998457458
 31
0.0
  0
LINE
  5
177A
330
1777
100
AcDbEntity
  8
0
100
AcDbLine
 10
-1.134046516726584
 20
1.284510998457458
 30
0.0
 11
-0.8660465167265842
 21
1.554510998457458
 31
0.0
  0
CIRCLE
  5
177B
330
1777
100
AcDbEntity
  8
0
100
AcDbCircle
 10
1.019575786526224
 20
-1.480180769215701
 30
0.0
 40
0.072
  0
LINE
  5
177C
330
1777
100
AcDbEntity
  8
0
100
AcDbLine
 10
1.033198089779034
 20
-1.224872536888863
 30
0.0
 11
0.7651980897790338
 21
-1.494872536888863
 31
0.0
  0
LINE
  5
177D
330
1777
100
AcDbEntity
  8
0
100
AcDbLine
 10
-1.185424213473772
 20
1.159819230784297
 30
0.0
 11
-1.185424213473772
 21
-1.100180769215699
 31
0.0
  0
LINE
  5
177E
330
1777
100
AcDbEntity
  8
0
100
AcDbLine
 10
-0.7404242134737729
 20
-1.5471807692157
 30
0.0
 11
-0.0504242134737751
 21
-1.5471807692157
 31
0.0
  0
ARC
  5
177F
330
1777
100
AcDbEntity
  8
0
100
AcDbCircle
 10
-1.008424213473773
 20
-1.100180769215699
 30
0.0
 40
0.177
100
AcDbArc
 50
180.0
 51
224.787005518289
  0
ARC
  5
1780
330
1777
100
AcDbEntity
  8
0
100
AcDbCircle
 10
-0.7404242134737729
 20
-1.370180769215698
 30
0.0
 40
0.177
100
AcDbArc
 50
224.787005518289
 51
270.0
  0
CIRCLE
  5
1781
330
1777
100
AcDbEntity
  8
0
100
AcDbCircle
 10
-1.120424213473774
 20
-1.480180769215701
 30
0.0
 40
0.072
  0
LINE
  5
1782
330
1777
100
AcDbEntity
  8
0
100
AcDbLine
 10
-1.134046516726584
 20
-1.224872536888863
 30
0.0
 11
-0.8660465167265842
 21
-1.494872536888863
 31
0.0
  0
LINE
  5
1783
330
1777
100
AcDbEntity
  8
0
100
AcDbLine
 10
0.6395757865262226
 20
-1.5471807692157
 30
0.0
 11
-0.0504242134737751
 21
-1.5471807692157
 31
0.0
  0
ARC
  5
1784
330
1777
100
AcDbEntity
  8
0
100
AcDbCircle
 10
0.6395757865262226
 20
-1.370180769215698
 30
0.0
 40
0.177
100
AcDbArc
 50
270.0
 51
315.2129944817109
  0
ARC
  5
1785
330
1777
100
AcDbEntity
  8
0
100
AcDbCircle
 10
-1.008424213473773
 20
1.159819230784297
 30
0.0
 40
0.177
100
AcDbArc
 50
135.2129944817109
 51
180.0
  0
LINE
  5
1786
330
1777
100
AcDbEntity
  8
0
100
AcDbLine
 10
1.08457578652622
 20
1.159819230784297
 30
0.0
 11
1.08457578652622
 21
-1.100180769215699
 31
0.0
  0
ARC
  5
1787
330
1777
100
AcDbEntity
  8
0
100
AcDbCircle
 10
0.9075757865262231
 20
-1.100180769215699
 30
0.0
 40
0.177
100
AcDbArc
 50
315.2129944817109
 51
0.0
  0
ARC
  5
1788
330
1777
100
AcDbEntity
  8
0
100
AcDbCircle
 10
0.9075757865262231
 20
1.159819230784297
 30
0.0
 40
0.177
100
AcDbArc
 50
0.0
 51
44.78700551828906
  0
CIRCLE
  5
1789
330
1777
100
AcDbEntity
  8
0
100
AcDbCircle
 10
1.019575786526224
 20
1.539819230784299
 30
0.0
 40
0.072
  0
LINE
  5
178A
330
1777
100
AcDbEntity
  8
0
100
AcDbLine
 10
-0.7404242134737729
 20
1.606819230784295
 30
0.0
 11
-0.0504242134737751
 21
1.606819230784295
 31
0.0
  0
ARC
  5
178B
330
1777
100
AcDbEntity
  8
0
100
AcDbCircle
 10
-0.7404242134737729
 20
1.429819230784294
 30
0.0
 40
0.177
100
AcDbArc
 50
90.0
 51
135.2129944817109
  0
CIRCLE
  5
178C
330
1777
100
AcDbEntity
  8
0
100
AcDbCircle
 10
-1.120424213473774
 20
1.539819230784299
 30
0.0
 40
0.072
  0
LINE
  5
178D
330
1777
100
AcDbEntity
  8
0
100
AcDbLine
 10
0.6395757865262226
 20
1.606819230784295
 30
0.0
 11
-0.0504242134737751
 21
1.606819230784295
 31
0.0
  0
ARC
  5
178E
330
1777
100
AcDbEntity
  8
0
100
AcDbCircle
 10
0.6395757865262226
 20
1.429819230784294
 30
0.0
 40
0.177
100
AcDbArc
 50
44.78700551828906
 51
90.0
  0
ENDBLK
  5
178F
330
1777
100
AcDbEntity
  8
0
100
AcDbBlockEnd
  0
BLOCK
  5
1791
330
1790
100
AcDbEntity
  8
0
100
AcDbBlockBegin
  2
CO_GARD
 70
     0
 10
0.0
 20
0.0
 30
0.0
  3
CO_GARD
  1

  0
CIRCLE
  5
1792
330
1790
100
AcDbEntity
  8
0
100
AcDbCircle
 10
-0.1499999999999915
 20
0.0
 30
0.0
 40
0.04
  0
CIRCLE
  5
1793
330
1790
100
AcDbEntity
  8
0
100
AcDbCircle
 10
0.1499999999999986
 20
0.0
 30
0.0
 40
0.04
  0
CIRCLE
  5
1794
330
1790
100
AcDbEntity
  8
0
100
AcDbCircle
 10
0.0
 20
0.0
 30
0.0
 40
0.04
  0
CIRCLE
  5
1795
330
1790
100
AcDbEntity
  8
0
100
AcDbCircle
 10
-0.1060660171779801
 20
-0.106066017177973
 30
0.0
 40
0.04
  0
CIRCLE
  5
1796
330
1790
100
AcDbEntity
  8
0
100
AcDbCircle
 10
-0.5
 20
-0.3399999999999963
 30
0.0
 40
0.0925
  0
CIRCLE
  5
1797
330
1790
100
AcDbEntity
  8
0
100
AcDbCircle
 10
0.106066017177973
 20
-0.106066017177973
 30
0.0
 40
0.04
  0
CIRCLE
  5
1798
330
1790
100
AcDbEntity
  8
0
100
AcDbCircle
 10
0.0
 20
-0.1500000000000128
 30
0.0
 40
0.04
  0
CIRCLE
  5
1799
330
1790
100
AcDbEntity
  8
0
100
AcDbCircle
 10
-0.1060660171779872
 20
0.106066017177973
 30
0.0
 40
0.04
  0
CIRCLE
  5
179A
330
1790
100
AcDbEntity
  8
0
100
AcDbCircle
 10
-0.5
 20
0.6599999999999966
 30
0.0
 40
0.0925
  0
CIRCLE
  5
179B
330
1790
100
AcDbEntity
  8
0
100
AcDbCircle
 10
-0.0000000000000071
 20
0.1500000000000057
 30
0.0
 40
0.04
  0
CIRCLE
  5
179C
330
1790
100
AcDbEntity
  8
0
100
AcDbCircle
 10
0.106066017177973
 20
0.1060660171779801
 30
0.0
 40
0.04
  0
CIRCLE
  5
179D
330
1790
100
AcDbEntity
  8
0
100
AcDbCircle
 10
0.25
 20
0.6599999999999966
 30
0.0
 40
0.0925
  0
ENDBLK
  5
179E
330
1790
100
AcDbEntity
  8
0
100
AcDbBlockEnd
  0
BLOCK
  5
17A0
330
179F
100
AcDbEntity
  8
0
100
AcDbBlockBegin
  2
ELT
 70
     0
 10
0.0
 20
0.0
 30
0.0
  3
ELT
  1

  0
LWPOLYLINE
  5
17A1
330
179F
100
AcDbEntity
  8
0
100
AcDbPolyline
 90
        4
 70
     1
 43
0.0
 10
0.0
 20
-0.7250000000000015
 10
1.060000000000002
 20
-0.7250000000000015
 10
1.060000000000002
 20
0.7250000000000015
 10
0.0
 20
0.7250000000000015
  0
CIRCLE
  5
17A2
330
179F
100
AcDbEntity
  8
0
100
AcDbCircle
 10
-0.0444999999999993
 20
-0.875
 30
0.0
 40
0.0775
  0
CIRCLE
  5
17A3
330
179F
100
AcDbEntity
  8
0
100
AcDbCircle
 10
0.997500000000002
 20
-0.875
 30
0.0
 40
0.0775
  0
CIRCLE
  5
17A4
330
179F
100
AcDbEntity
  8
0
100
AcDbCircle
 10
-0.0444999999999993
 20
0.8750000000000071
 30
0.0
 40
0.0775
  0
CIRCLE
  5
17A5
330
179F
100
AcDbEntity
  8
0
100
AcDbCircle
 10
0.997500000000002
 20
0.8750000000000071
 30
0.0
 40
0.0775
  0
ENDBLK
  5
17A6
330
179F
100
AcDbEntity
  8
0
100
AcDbBlockEnd
  0
BLOCK
  5
18D6
330
18D5
100
AcDbEntity
  8
0
100
AcDbBlockBegin
  2
496
 70
     0
 10
0.0
 20
0.0
 30
0.0
  3
496
  1

  0
LINE
  5
18D7
330
18D5
100
AcDbEntity
  8
outline
100
AcDbLine
 10
3.124999999999991
 20
-4.250000000000001
 30
0.0
 11
3.125
 21
0.0
 31
0.0
  0
LINE
  5
18D8
330
18D5
100
AcDbEntity
  8
outline
100
AcDbLine
 10
-3.125
 20
0.0
 30
0.0
 11
-3.125
 21
-4.250000000000001
 31
0.0
  0
MTEXT
  5
18D9
330
18D5
100
AcDbEntity
  8
outline
100
AcDbMText
 10
-1.424715813255686
 20
-1.608796633936569
 30
0.0
 40
1.0
 41
4.3204
 46
0.0
 71
     1
 72
     5
  1
{\fArial|b0|i0|c0|p34;496}
 73
     1
 44
1.0
  0
LINE
  5
18DA
330
18D5
100
AcDbEntity
  8
outline
100
AcDbLine
 10
3.125
 20
-4.25
 30
0.0
 11
-3.125
 21
-4.25
 31
0.0
  0
LINE
  5
18DB
330
18D5
100
AcDbEntity
  8
outline
100
AcDbLine
 10
3.125
 20
0.0
 30
0.0
 11
-3.125
 21
0.0
 31
0.0
  0
ENDBLK
  5
18DC
330
18D5
100
AcDbEntity
  8
0
100
AcDbBlockEnd
  0
BLOCK
  5
18DE
330
18DD
100
AcDbEntity
  8
0
100
AcDbBlockBegin
  2
pma8000
 70
     0
 10
0.0
 20
0.0
 30
0.0
  3
pma8000
  1

  0
MTEXT
  5
18DF
330
18DD
100
AcDbEntity
  8
outline
100
AcDbMText
 10
-2.918917133218485
 20
-0.138458153034529
 30
0.0
 40
1.0
 41
4.3204
 46
0.0
 71
     1
 72
     5
  1
{\fArial|b0|i0|c0|p34;PMA8000}
 73
     1
 44
1.0
  0
LINE
  5
18E0
330
18DD
100
AcDbEntity
  8
outline
100
AcDbLine
 10
3.125
 20
0.0
 30
0.0
 11
-3.125
 21
0.0
 31
0.0
  0
LINE
  5
18E1
330
18DD
100
AcDbEntity
  8
outline
100
AcDbLine
 10
3.125
 20
-1.3
 30
0.0
 11
-3.125
 21
-1.3
 31
0.0
  0
LINE
  5
18E2
330
18DD
100
AcDbEntity
  8
outline
100
AcDbLine
 10
-3.125
 20
0.0
 30
0.0
 11
-3.125
 21
-1.300000000000002
 31
0.0
  0
LINE
  5
18E3
330
18DD
100
AcDbEntity
  8
outline
100
AcDbLine
 10
3.124999999999991
 20
-1.300000000000002
 30
0.0
 11
3.125
 21
0.0
 31
0.0
  0
ENDBLK
  5
18E4
330
18DD
100
AcDbEntity
  8
0
100
AcDbBlockEnd
  0
BLOCK
  5
18E6
330
18E5
100
AcDbEntity
  8
0
100
AcDbBlockBegin
  2
430W
 70
     0
 10
0.0
 20
0.0
 30
0.0
  3
430W
  1

  0
MTEXT
  5
18E7
330
18E5
100
AcDbEntity
  8
outline
100
AcDbMText
 10
-2.044893504814865
 20
-0.7728591634633606
 30
0.0
 40
1.0
 41
4.3204
 46
0.0
 71
     1
 72
     5
  1
{\fArial|b0|i0|c0|p34;430W}
 73
     1
 44
1.0
  0
LWPOLYLINE
  5
18E8
330
18E5
100
AcDbEntity
  8
outline
100
AcDbPolyline
 90
        4
 70
     1
 43
0.0
 10
-3.125
 20
-2.649999999999999
 10
3.125
 20
-2.649999999999999
 10
3.125
 20
0.0
 10
-3.125
 20
0.0
  0
ENDBLK
  5
18E9
330
18E5
100
AcDbEntity
  8
0
100
AcDbBlockEnd
  0
BLOCK
  5
18EB
330
18EA
100
AcDbEntity
  8
0
100
AcDbBlockBegin
  2
sl30
 70
     0
 10
0.0
 20
0.0
 30
0.0
  3
sl30
  1

  0
LINE
  5
18EC
330
18EA
100
AcDbEntity
  8
outline
100
AcDbLine
 10
3.125
 20
-1.3
 30
0.0
 11
-3.125
 21
-1.3
 31
0.0
  0
LINE
  5
18ED
330
18EA
100
AcDbEntity
  8
outline
100
AcDbLine
 10
3.125
 20
0.0
 30
0.0
 11
-3.125
 21
0.0
 31
0.0
  0
LINE
  5
18EE
330
18EA
100
AcDbEntity
  8
outline
100
AcDbLine
 10
-3.125
 20
0.0
 30
0.0
 11
-3.125
 21
-1.300000000000002
 31
0.0
  0
MTEXT
  5
18EF
330
18EA
100
AcDbEntity
  8
outline
100
AcDbMText
 10
-1.594574921243292
 20
-0.1205740067074092
 30
0.0
 40
1.0
 41
4.3204
 46
0.0
 71
     1
 72
     5
  1
{\fArial|b0|i0|c0|p34;SL30}
 73
     1
 44
1.0
  0
LINE
  5
18F0
330
18EA
100
AcDbEntity
  8
outline
100
AcDbLine
 10
3.124999999999991
 20
-1.300000000000002
 30
0.0
 11
3.125
 21
0.0
 31
0.0
  0
ENDBLK
  5
18F1
330
18EA
100
AcDbEntity
  8
0
100
AcDbBlockEnd
  0
BLOCK
  5
18F3
330
18F2
100
AcDbEntity
  8
0
100
AcDbBlockBegin
  2
gtx330
 70
     0
 10
0.0
 20
0.0
 30
0.0
  3
gtx330
  1

  0
MTEXT
  5
18F4
330
18F2
100
AcDbEntity
  8
outline
100
AcDbMText
 10
-2.428520972517759
 20
-0.2714420176910099
 30
0.0
 40
1.0
 41
4.3204
 46
0.0
 71
     1
 72
     5
  1
{\fArial|b0|i0|c0|p34;GTX330}
 73
     1
 44
1.0
  0
LINE
  5
18F5
330
18F2
100
AcDbEntity
  8
outline
100
AcDbLine
 10
3.124999999999991
 20
-1.649999999999999
 30
0.0
 11
3.125
 21
0.0
 31
0.0
  0
LINE
  5
18F6
330
18F2
100
AcDbEntity
  8
outline
100
AcDbLine
 10
-3.125
 20
0.0
 30
0.0
 11
-3.125000000000006
 21
-1.649999999999999
 31
0.0
  0
LINE
  5
18F7
330
18F2
100
AcDbEntity
  8
outline
100
AcDbLine
 10
3.125
 20
-1.649999999999999
 30
0.0
 11
-3.125
 21
-1.649999999999999
 31
0.0
  0
LINE
  5
18F8
330
18F2
100
AcDbEntity
  8
outline
100
AcDbLine
 10
3.125
 20
0.0
 30
0.0
 11
-3.125
 21
0.0
 31
0.0
  0
ENDBLK
  5
18F9
330
18F2
100
AcDbEntity
  8
0
100
AcDbBlockEnd
  0
BLOCK
  5
1973
330
1972
100
AcDbEntity
  8
0
100
AcDbBlockBegin
  2
AF-3400
 70
     0
 10
0.0
 20
0.0
 30
0.0
  3
AF-3400
  1

  0
LINE
  5
1974
330
1972
100
AcDbEntity
  8
0
  6
Continuous
 62
     7
370
    15
100
AcDbLine
 10
2.816593747583922
 20
2.842129391801485
 30
0.0
 11
-3.013406252416068
 21
2.842129391801485
 31
0.0
  0
LINE
  5
1975
330
1972
100
AcDbEntity
  8
0
  6
Continuous
 62
     7
370
    15
100
AcDbLine
 10
-3.013406252416068
 20
-2.73787060819852
 30
0.0
 11
2.816593747583922
 21
-2.73787060819852
 31
0.0
  0
LINE
  5
1976
330
1972
100
AcDbEntity
  8
0
  6
Continuous
 62
     7
370
    15
100
AcDbLine
 10
-3.113406252416068
 20
2.742129391801483
 30
0.0
 11
-3.113406252416068
 21
-2.637870608198518
 31
0.0
  0
ARC
  5
1977
330
1972
100
AcDbEntity
  8
0
  6
Continuous
 62
     7
370
    15
100
AcDbCircle
 10
-3.013406252416068
 20
-2.637870608198518
 30
0.0
 40
0.1
100
AcDbArc
 50
180.0
 51
270.0
  0
CIRCLE
  5
1978
330
1972
100
AcDbEntity
  8
0
100
AcDbCircle
 10
-3.248406252416067
 20
-2.620670608198521
 30
0.0
 40
0.075
  0
ARC
  5
1979
330
1972
100
AcDbEntity
  8
0
  6
Continuous
 62
     7
370
    15
100
AcDbCircle
 10
-3.013406252416068
 20
2.742129391801483
 30
0.0
 40
0.1
100
AcDbArc
 50
90.0
 51
180.0
  0
CIRCLE
  5
197A
330
1972
100
AcDbEntity
  8
0
100
AcDbCircle
 10
-3.248406252416067
 20
2.729329391801469
 30
0.0
 40
0.075
  0
LINE
  5
197B
330
1972
100
AcDbEntity
  8
0
  6
Continuous
 62
     7
370
    15
100
AcDbLine
 10
2.916593747583923
 20
-2.637870608198518
 30
0.0
 11
2.916593747583923
 21
2.742129391801483
 31
0.0
  0
CIRCLE
  5
197C
330
1972
100
AcDbEntity
  8
0
100
AcDbCircle
 10
3.051593747583935
 20
-2.620670608198521
 30
0.0
 40
0.075
  0
ARC
  5
197D
330
1972
100
AcDbEntity
  8
0
  6
Continuous
 62
     7
370
    15
100
AcDbCircle
 10
2.816593747583922
 20
-2.637870608198518
 30
0.0
 40
0.1
100
AcDbArc
 50
270.0
 51
0.0
  0
CIRCLE
  5
197E
330
1972
100
AcDbEntity
  8
0
100
AcDbCircle
 10
3.051593747583935
 20
2.729329391801469
 30
0.0
 40
0.075
  0
ARC
  5
197F
330
1972
100
AcDbEntity
  8
0
  6
Continuous
 62
     7
370
    15
100
AcDbCircle
 10
2.816593747583922
 20
2.742129391801483
 30
0.0
 40
0.1
100
AcDbArc
 50
0.0
 51
90.0
  0
ENDBLK
  5
1980
330
1972
100
AcDbEntity
  8
0
100
AcDbBlockEnd
  0
BLOCK
  5
1A6B
330
1A6A
100
AcDbEntity
  8
0
100
AcDbBlockBegin
  2
AP
 70
     0
 10
0.0
 20
0.0
 30
0.0
  3
AP
  1

  0
CIRCLE
  5
1A6D
330
1A6A
100
AcDbEntity
  8
0
100
AcDbCircle
 10
-0.9250000000000008
 20
-0.9250000000000008
 30
0.0
 40
0.075
  0
CIRCLE
  5
1A6E
330
1A6A
100
AcDbEntity
  8
0
100
AcDbCircle
 10
0.92499999999999
 20
-0.9249999999999971
 30
0.0
 40
0.075
  0
CIRCLE
  5
1A6F
330
1A6A
100
AcDbEntity
  8
0
100
AcDbCircle
 10
0.0
 20
0.0
 30
0.0
 40
1.139999999999999
  0
CIRCLE
  5
1A70
330
1A6A
100
AcDbEntity
  8
0
100
AcDbCircle
 10
-0.9250000000000008
 20
0.9249999999999998
 30
0.0
 40
0.075
  0
CIRCLE
  5
1A71
330
1A6A
100
AcDbEntity
  8
0
100
AcDbCircle
 10
0.9249999999999971
 20
0.9249999999999998
 30
0.0
 40
0.075
  0
ENDBLK
  5
1A6C
330
1A6A
100
AcDbEntity
  8
0
100
AcDbBlockEnd
  0
BLOCK
  5
2A11
330
2A02
100
AcDbEntity
  8
0
100
AcDbBlockBegin
  2
A$C506A1C50
 70
     0
 10
0.0
 20
0.0
 30
0.0
  3
A$C506A1C50
  1

  0
LWPOLYLINE
  5
2A03
102
{ACAD_REACTORS
330
2A04
102
}
330
2A02
100
AcDbEntity
  8
7
  6
Continuous
100
AcDbPolyline
 90
        9
 70
     0
 43
0.0
 10
0.0581997244501942
 20
0.0028499274168343
 10
-0.0000000223987087
 20
0.0028499274168343
 10
0.0766682951017188
 20
0.154063095897996
 10
0.1377179575428364
 20
0.154063095897996
 10
0.1675303098653416
 20
0.0028499274168343
 10
0.1093305630164423
 20
0.0028499274168343
 10
0.1071791561478044
 20
0.0212905577194151
 10
0.0660230221543188
 20
0.0212905577194151
 10
0.0581997244501942
 20
0.0028499274168343
  0
HATCH
  5
2A04
330
2A02
100
AcDbEntity
  8
3
100
AcDbHatch
 10
0.0
 20
0.0
 30
0.0
210
0.0
220
0.0
230
1.0
  2
SOLID
 70
     1
 71
     1
 91
        2
 92
       16
 93
        5
 72
     1
 10
0.1036307318320055
 20
0.0575012499499375
 11
0.1015072653123141
 21
0.0844916270291685
 72
     1
 10
0.1015072653123141
 20
0.0844916270291685
 11
0.1008087565887337
 21
0.1036587064042753
 72
     1
 10
0.1008087565887337
 20
0.1036587064042753
 11
0.0986852900690423
 21
0.1036587064042753
 72
     1
 10
0.0986852900690423
 20
0.1036587064042753
 11
0.0816416772136251
 21
0.0575012499499375
 72
     1
 10
0.0816416772136251
 20
0.0575012499499375
 11
0.1036307318320055
 21
0.0575012499499375
 97
        1
330
2A0C
 92
        1
 93
        8
 72
     1
 10
0.0581997244501942
 20
0.0028499274168343
 11
-0.0000000223987087
 21
0.0028499274168343
 72
     1
 10
-0.0000000223987087
 20
0.0028499274168343
 11
0.0766682951017188
 21
0.154063095897996
 72
     1
 10
0.0766682951017188
 20
0.154063095897996
 11
0.1377179575428364
 21
0.154063095897996
 72
     1
 10
0.1377179575428364
 20
0.154063095897996
 11
0.1675303098653416
 21
0.0028499274168343
 72
     1
 10
0.1675303098653416
 20
0.0028499274168343
 11
0.1093305630164423
 21
0.0028499274168343
 72
     1
 10
0.1093305630164423
 20
0.0028499274168343
 11
0.1071791561478044
 21
0.0212905577194151
 72
     1
 10
0.1071791561478044
 20
0.0212905577194151
 11
0.0660230221543188
 21
0.0212905577194151
 72
     1
 10
0.0660230221543188
 20
0.0212905577194151
 11
0.0581997244501942
 21
0.0028499274168343
 97
        1
330
2A03
 75
     0
 76
     1
 98
        1
 10
-16.05686764444196
 20
-0.7644502762918748
450
        0
451
        0
460
0.0
461
0.0
452
        0
462
0.0
453
        0
470

  0
LWPOLYLINE
  5
2A05
102
{ACAD_REACTORS
330
2A07
102
}
330
2A02
100
AcDbEntity
  8
7
  6
Continuous
100
AcDbPolyline
 90
       13
 70
     0
 43
0.0
 10
0.9009365292781339
 20
0.154063095897996
 10
1.002443816989154
 20
0.154063095897996
 10
0.9960734174300823
 20
0.1128790215555657
 10
0.9499159609757439
 20
0.1128790215555657
 10
0.9477924944560529
 20
0.0979868155687851
 10
0.9896750775220651
 20
0.0979868155687851
 10
0.9832767376140479
 20
0.0589262077460457
 10
0.9413941545480357
 20
0.0589262077460457
 10
0.9392706880283439
 20
0.0440340017592647
 10
0.9868251619298503
 20
0.0440340017592647
 10
0.9804547623707762
 20
0.0028499274168343
 10
0.8774945765146995
 20
0.0028499274168343
 10
0.9009365292781339
 20
0.154063095897996
  0
LWPOLYLINE
  5
2A06
102
{ACAD_REACTORS
330
2A07
102
}
330
2A02
100
AcDbEntity
  8
7
  6
Continuous
100
AcDbPolyline
 90
       25
 70
     0
 43
0.0
 10
0.8853178742188241
 20
0.092286984384351
 10
0.8718226856792091
 20
0.1029601976806931
 10
0.8555055218963191
 20
0.1079056394436582
 10
0.8434352911528113
 20
0.1057821729239667
 10
0.8327620778564719
 20
0.0994117733648934
 10
0.8249667205012869
 20
0.0901635178646596
 10
0.8207197874619041
 20
0.0780932871211526
 10
0.8214182961854881
 20
0.0667495054501708
 10
0.8263916782973943
 20
0.0575012499499375
 10
0.8349134847251027
 20
0.0511308503908636
 10
0.8469837154686102
 20
0.0489794435222297
 10
0.8647258370476079
 20
0.052527867838029
 10
0.8803444921069177
 20
0.0632010811343715
 10
0.8696992191595176
 20
0.006398351732634
 10
0.8299401026131967
 20
0.0000000118246173
 10
0.8001277502906916
 20
0.006398351732634
 10
0.7788092640469487
 20
0.0227155155155234
 10
0.7660405245798608
 20
0.0468559770025383
 10
0.7646155667837498
 20
0.0766683293250439
 10
0.7759872888036769
 20
0.1079056394436582
 10
0.7965793259748894
 20
0.1334710587267809
 10
0.8242682117777029
 20
0.1498161628586141
 10
0.8569025393434833
 20
0.1561865624176875
 10
0.8924147228504253
 20
0.1498161628586141
 10
0.8853178742188241
 20
0.092286984384351
  0
HATCH
  5
2A07
330
2A02
100
AcDbEntity
  8
3
100
AcDbHatch
 10
0.0
 20
0.0
 30
0.0
210
0.0
220
0.0
230
1.0
  2
SOLID
 70
     1
 71
     1
 91
       10
 92
       16
 93
       10
 72
     1
 10
1.052876146831819
 20
0.048280934798647
 11
1.056424571147619
 21
0.048280934798647
 72
     1
 10
1.056424571147619
 20
0.048280934798647
 11
1.080565032634634
 21
0.0546792747066638
 72
     1
 10
1.080565032634634
 20
0.0546792747066638
 11
1.0890588987134
 21
0.0632010811343715
 72
     1
 10
1.0890588987134
 20
0.0632010811343715
 11
1.093333772101725
 21
0.0759698206014612
 72
     1
 10
1.093333772101725
 20
0.0759698206014612
 11
1.093333772101725
 21
0.0901635178646596
 72
     1
 10
1.093333772101725
 20
0.0901635178646596
 11
1.088360389989814
 21
0.0994117733648934
 72
     1
 10
1.088360389989814
 20
0.0994117733648934
 11
1.079140074838526
 21
0.1050836642003841
 72
     1
 10
1.079140074838526
 20
0.1050836642003841
 11
1.065644886298912
 21
0.1065086219964924
 72
     1
 10
1.065644886298912
 20
0.1065086219964924
 11
1.062096461983109
 21
0.1065086219964924
 72
     1
 10
1.062096461983109
 20
0.1065086219964924
 11
1.052876146831819
 21
0.048280934798647
 97
        1
330
2A10
 92
        1
 93
       12
 72
     1
 10
1.015240496805186
 20
0.154063095897996
 11
1.0713167771344
 21
0.154063095897996
 72
     1
 10
1.0713167771344
 20
0.154063095897996
 11
1.106102511568813
 21
0.1498161628586141
 72
     1
 10
1.106102511568813
 20
0.1498161628586141
 11
1.132394379924461
 21
0.1355945252464723
 72
     1
 10
1.132394379924461
 20
0.1355945252464723
 11
1.140888246003227
 21
0.1249492522990736
 72
     1
 10
1.140888246003227
 20
0.1249492522990736
 11
1.147286585911241
 21
0.111454063759457
 72
     1
 10
1.147286585911241
 20
0.111454063759457
 11
1.148013034983769
 21
0.0759698206014612
 72
     1
 10
1.148013034983769
 20
0.0759698206014612
 11
1.138066270759952
 21
0.04543101920643
 72
     1
 10
1.138066270759952
 20
0.04543101920643
 11
1.118172742312321
 21
0.0227155155155234
 72
     1
 10
1.118172742312321
 20
0.0227155155155234
 11
1.091908814305615
 21
0.0078233095287423
 72
     1
 10
1.091908814305615
 20
0.0078233095287423
 11
1.060671504187002
 21
0.0028499274168343
 72
     1
 10
1.060671504187002
 20
0.0028499274168343
 11
0.9911000353181728
 21
0.0028499274168343
 72
     1
 10
0.9911000353181728
 20
0.0028499274168343
 11
1.015240496805186
 21
0.154063095897996
 97
        1
330
2A0F
 92
        1
 93
       12
 72
     1
 10
0.9009365292781339
 20
0.154063095897996
 11
1.002443816989154
 21
0.154063095897996
 72
     1
 10
1.002443816989154
 20
0.154063095897996
 11
0.9960734174300823
 21
0.1128790215555657
 72
     1
 10
0.9960734174300823
 20
0.1128790215555657
 11
0.9499159609757439
 21
0.1128790215555657
 72
     1
 10
0.9499159609757439
 20
0.1128790215555657
 11
0.9477924944560529
 21
0.0979868155687851
 72
     1
 10
0.9477924944560529
 20
0.0979868155687851
 11
0.9896750775220651
 21
0.0979868155687851
 72
     1
 10
0.9896750775220651
 20
0.0979868155687851
 11
0.9832767376140479
 21
0.0589262077460457
 72
     1
 10
0.9832767376140479
 20
0.0589262077460457
 11
0.9413941545480357
 21
0.0589262077460457
 72
     1
 10
0.9413941545480357
 20
0.0589262077460457
 11
0.9392706880283439
 21
0.0440340017592647
 72
     1
 10
0.9392706880283439
 20
0.0440340017592647
 11
0.9868251619298503
 21
0.0440340017592647
 72
     1
 10
0.9868251619298503
 20
0.0440340017592647
 11
0.9804547623707762
 21
0.0028499274168343
 72
     1
 10
0.9804547623707762
 20
0.0028499274168343
 11
0.8774945765146995
 21
0.0028499274168343
 72
     1
 10
0.8774945765146995
 20
0.0028499274168343
 11
0.9009365292781339
 21
0.154063095897996
 97
        1
330
2A05
 92
        1
 93
       24
 72
     1
 10
0.8853178742188241
 20
0.092286984384351
 11
0.8718226856792091
 21
0.1029601976806931
 72
     1
 10
0.8718226856792091
 20
0.1029601976806931
 11
0.8555055218963191
 21
0.1079056394436582
 72
     1
 10
0.8555055218963191
 20
0.1079056394436582
 11
0.8434352911528113
 21
0.1057821729239667
 72
     1
 10
0.8434352911528113
 20
0.1057821729239667
 11
0.8327620778564719
 21
0.0994117733648934
 72
     1
 10
0.8327620778564719
 20
0.0994117733648934
 11
0.8249667205012869
 21
0.0901635178646596
 72
     1
 10
0.8249667205012869
 20
0.0901635178646596
 11
0.8207197874619041
 21
0.0780932871211526
 72
     1
 10
0.8207197874619041
 20
0.0780932871211526
 11
0.8214182961854881
 21
0.0667495054501708
 72
     1
 10
0.8214182961854881
 20
0.0667495054501708
 11
0.8263916782973943
 21
0.0575012499499375
 72
     1
 10
0.8263916782973943
 20
0.0575012499499375
 11
0.8349134847251027
 21
0.0511308503908636
 72
     1
 10
0.8349134847251027
 20
0.0511308503908636
 11
0.8469837154686102
 21
0.0489794435222297
 72
     1
 10
0.8469837154686102
 20
0.0489794435222297
 11
0.8647258370476079
 21
0.052527867838029
 72
     1
 10
0.8647258370476079
 20
0.052527867838029
 11
0.8803444921069177
 21
0.0632010811343715
 72
     1
 10
0.8803444921069177
 20
0.0632010811343715
 11
0.8696992191595176
 21
0.006398351732634
 72
     1
 10
0.8696992191595176
 20
0.006398351732634
 11
0.8299401026131967
 21
0.0000000118246173
 72
     1
 10
0.8299401026131967
 20
0.0000000118246173
 11
0.8001277502906916
 21
0.006398351732634
 72
     1
 10
0.8001277502906916
 20
0.006398351732634
 11
0.7788092640469487
 21
0.0227155155155234
 72
     1
 10
0.7788092640469487
 20
0.0227155155155234
 11
0.7660405245798608
 21
0.0468559770025383
 72
     1
 10
0.7660405245798608
 20
0.0468559770025383
 11
0.7646155667837498
 21
0.0766683293250439
 72
     1
 10
0.7646155667837498
 20
0.0766683293250439
 11
0.7759872888036769
 21
0.1079056394436582
 72
     1
 10
0.7759872888036769
 20
0.1079056394436582
 11
0.7965793259748894
 21
0.1334710587267809
 72
     1
 10
0.7965793259748894
 20
0.1334710587267809
 11
0.8242682117777029
 21
0.1498161628586141
 72
     1
 10
0.8242682117777029
 20
0.1498161628586141
 11
0.8569025393434833
 21
0.1561865624176875
 72
     1
 10
0.8569025393434833
 20
0.1561865624176875
 11
0.8924147228504253
 21
0.1498161628586141
 72
     1
 10
0.8924147228504253
 20
0.1498161628586141
 11
0.8853178742188241
 21
0.092286984384351
 97
        1
330
2A06
 92
        1
 93
       14
 72
     1
 10
0.6190742891380801
 20
0.154063095897996
 11
0.6716021451514928
 21
0.154063095897996
 72
     1
 10
0.6716021451514928
 20
0.154063095897996
 11
0.707812837382015
 21
0.0702979297659705
 72
     1
 10
0.707812837382015
 20
0.0702979297659705
 11
0.7092377951781224
 21
0.0702979297659705
 72
     1
 10
0.7092377951781224
 20
0.0702979297659705
 11
0.7106627529742298
 21
0.1086320885161838
 72
     1
 10
0.7106627529742298
 20
0.1086320885161838
 11
0.717759601605831
 21
0.154063095897996
 72
     1
 10
0.717759601605831
 20
0.154063095897996
 11
0.7710139066917705
 21
0.154063095897996
 72
     1
 10
0.7710139066917705
 20
0.154063095897996
 11
0.7468734452047521
 21
0.0028499274168343
 72
     1
 10
0.7468734452047521
 20
0.0028499274168343
 11
0.6943455891913395
 21
0.0028499274168343
 72
     1
 10
0.6943455891913395
 20
0.0028499274168343
 11
0.6581348969608209
 21
0.0823681605094779
 72
     1
 10
0.6581348969608209
 20
0.0823681605094779
 11
0.6567099391647098
 21
0.0823681605094779
 72
     1
 10
0.6567099391647098
 20
0.0823681605094779
 11
0.6552849813686024
 21
0.0518293591144463
 72
     1
 10
0.6552849813686024
 20
0.0518293591144463
 11
0.6474616836644778
 21
0.0028499274168343
 72
     1
 10
0.6474616836644778
 20
0.0028499274168343
 11
0.5949338276510652
 21
0.0028499274168343
 72
     1
 10
0.5949338276510652
 20
0.0028499274168343
 11
0.6190742891380801
 21
0.154063095897996
 97
        1
330
2A0D
 92
       16
 93
        5
 72
     1
 10
0.5232388922625475
 20
0.0575012499499375
 11
0.5210874853939133
 21
0.0844916270291685
 72
     1
 10
0.5210874853939133
 20
0.0844916270291685
 11
0.5203889766703327
 21
0.1036587064042753
 72
     1
 10
0.5203889766703327
 20
0.1036587064042753
 11
0.5182655101506413
 21
0.1036587064042753
 72
     1
 10
0.5182655101506413
 20
0.1036587064042753
 11
0.5012218972952242
 21
0.0575012499499375
 72
     1
 10
0.5012218972952242
 20
0.0575012499499375
 11
0.5232388922625475
 21
0.0575012499499375
 97
        1
330
2A0E
 92
        1
 93
        8
 72
     1
 10
0.4777799445317898
 20
0.0028499274168343
 11
0.4195801976828868
 21
0.0028499274168343
 72
     1
 10
0.4195801976828868
 20
0.0028499274168343
 11
0.4962485151833145
 21
0.154063095897996
 72
     1
 10
0.4962485151833145
 20
0.154063095897996
 11
0.5565996689008516
 21
0.154063095897996
 72
     1
 10
0.5565996689008516
 20
0.154063095897996
 11
0.5871384702958835
 21
0.0028499274168343
 72
     1
 10
0.5871384702958835
 20
0.0028499274168343
 11
0.5289107830980379
 21
0.0028499274168343
 72
     1
 10
0.5289107830980379
 20
0.0028499274168343
 11
0.5267873165783464
 21
0.0212905577194151
 72
     1
 10
0.5267873165783464
 20
0.0212905577194151
 11
0.4856032422359178
 21
0.0212905577194151
 72
     1
 10
0.4856032422359178
 20
0.0212905577194151
 11
0.4777799445317898
 21
0.0028499274168343
 97
        1
330
2A08
 92
        1
 93
       10
 72
     1
 10
0.4813563091965352
 20
0.154063095897996
 11
0.3989881605116743
 21
0.0028499274168343
 72
     1
 10
0.3989881605116743
 20
0.0028499274168343
 11
0.3521321953337519
 21
0.0028499274168343
 72
     1
 10
0.3521321953337519
 20
0.0028499274168343
 11
0.3180449696229211
 21
0.154063095897996
 72
     1
 10
0.3180449696229211
 20
0.154063095897996
 11
0.3748476990246594
 21
0.154063095897996
 72
     1
 10
0.3748476990246594
 20
0.154063095897996
 11
0.3840680141759485
 21
0.0851901357527512
 72
     1
 10
0.3840680141759485
 20
0.0851901357527512
 11
0.3847944632484754
 21
0.0624746320618455
 72
     1
 10
0.3847944632484754
 20
0.0624746320618455
 11
0.3854929719720594
 21
0.0624746320618455
 72
     1
 10
0.3854929719720594
 20
0.0624746320618455
 11
0.393316269676184
 21
0.0851901357527512
 72
     1
 10
0.393316269676184
 20
0.0851901357527512
 11
0.4238271307222732
 21
0.154063095897996
 72
     1
 10
0.4238271307222732
 20
0.154063095897996
 11
0.4813563091965352
 21
0.154063095897996
 97
        1
330
2A09
 92
       16
 93
       10
 72
     1
 10
0.2293064213789897
 20
0.048280934798647
 11
0.2328548456947885
 21
0.048280934798647
 72
     1
 10
0.2328548456947885
 20
0.048280934798647
 11
0.2569953071818034
 21
0.0546792747066638
 72
     1
 10
0.2569953071818034
 20
0.0546792747066638
 11
0.2655171136095085
 21
0.0632010811343715
 72
     1
 10
0.2655171136095085
 20
0.0632010811343715
 11
0.2697640466488949
 21
0.0759698206014612
 72
     1
 10
0.2697640466488949
 20
0.0759698206014612
 11
0.2697640466488949
 21
0.0901635178646596
 72
     1
 10
0.2697640466488949
 20
0.0901635178646596
 11
0.2647906645369851
 21
0.0994117733648934
 72
     1
 10
0.2647906645369851
 20
0.0994117733648934
 11
0.255570349385696
 21
0.1050836642003841
 72
     1
 10
0.255570349385696
 20
0.1050836642003841
 11
0.2420751608460776
 21
0.1065086219964924
 72
     1
 10
0.2420751608460776
 20
0.1065086219964924
 11
0.2385267365302788
 21
0.1065086219964924
 72
     1
 10
0.2385267365302788
 20
0.1065086219964924
 11
0.2293064213789897
 21
0.048280934798647
 97
        1
330
2A0B
 92
        1
 93
       12
 72
     1
 10
0.1916707713523564
 20
0.154063095897996
 11
0.2470485429579874
 21
0.154063095897996
 72
     1
 10
0.2470485429579874
 20
0.154063095897996
 11
0.2818342773923987
 21
0.1498161628586141
 72
     1
 10
0.2818342773923987
 20
0.1498161628586141
 11
0.308098205399105
 21
0.1355945252464723
 72
     1
 10
0.308098205399105
 20
0.1355945252464723
 11
0.317346460899337
 21
0.1249492522990736
 72
     1
 10
0.317346460899337
 20
0.1249492522990736
 11
0.3230183517348273
 21
0.111454063759457
 72
     1
 10
0.3230183517348273
 20
0.111454063759457
 11
0.3244433095309382
 21
0.0759698206014612
 72
     1
 10
0.3244433095309382
 20
0.0759698206014612
 11
0.3144965453071222
 21
0.04543101920643
 72
     1
 10
0.3144965453071222
 20
0.04543101920643
 11
0.2946309572084331
 21
0.0227155155155234
 72
     1
 10
0.2946309572084331
 20
0.0227155155155234
 11
0.2683670292017268
 21
0.0078233095287423
 72
     1
 10
0.2683670292017268
 20
0.0078233095287423
 11
0.2371017787341678
 21
0.0028499274168343
 72
     1
 10
0.2371017787341678
 20
0.0028499274168343
 11
0.1675303098653416
 21
0.0028499274168343
 72
     1
 10
0.1675303098653416
 20
0.0028499274168343
 11
0.1916707713523564
 21
0.154063095897996
 97
        1
330
2A0A
 75
     0
 76
     1
 98
        1
 10
-16.05686764444196
 20
-0.7644502762918748
450
        0
451
        0
460
0.0
461
0.0
452
        0
462
0.0
453
        0
470

  0
LWPOLYLINE
  5
2A08
102
{ACAD_REACTORS
330
2A07
102
}
330
2A02
100
AcDbEntity
  8
7
  6
Continuous
100
AcDbPolyline
 90
        9
 70
     0
 43
0.0
 10
0.4777799445317898
 20
0.0028499274168343
 10
0.4195801976828868
 20
0.0028499274168343
 10
0.4962485151833145
 20
0.154063095897996
 10
0.5565996689008516
 20
0.154063095897996
 10
0.5871384702958835
 20
0.0028499274168343
 10
0.5289107830980379
 20
0.0028499274168343
 10
0.5267873165783464
 20
0.0212905577194151
 10
0.4856032422359178
 20
0.0212905577194151
 10
0.4777799445317898
 20
0.0028499274168343
  0
LWPOLYLINE
  5
2A09
102
{ACAD_REACTORS
330
2A07
102
}
330
2A02
100
AcDbEntity
  8
7
  6
Continuous
100
AcDbPolyline
 90
       11
 70
     0
 43
0.0
 10
0.4813563091965352
 20
0.154063095897996
 10
0.3989881605116743
 20
0.0028499274168343
 10
0.3521321953337519
 20
0.0028499274168343
 10
0.3180449696229211
 20
0.154063095897996
 10
0.3748476990246594
 20
0.154063095897996
 10
0.3840680141759485
 20
0.0851901357527512
 10
0.3847944632484754
 20
0.0624746320618455
 10
0.3854929719720594
 20
0.0624746320618455
 10
0.393316269676184
 20
0.0851901357527512
 10
0.4238271307222732
 20
0.154063095897996
 10
0.4813563091965352
 20
0.154063095897996
  0
LWPOLYLINE
  5
2A0A
102
{ACAD_REACTORS
330
2A07
102
}
330
2A02
100
AcDbEntity
  8
7
  6
Continuous
100
AcDbPolyline
 90
       13
 70
     0
 43
0.0
 10
0.1916707713523564
 20
0.154063095897996
 10
0.2470485429579874
 20
0.154063095897996
 10
0.2818342773923987
 20
0.1498161628586141
 10
0.308098205399105
 20
0.1355945252464723
 10
0.317346460899337
 20
0.1249492522990736
 10
0.3230183517348273
 20
0.111454063759457
 10
0.3244433095309382
 20
0.0759698206014612
 10
0.3144965453071222
 20
0.04543101920643
 10
0.2946309572084331
 20
0.0227155155155234
 10
0.2683670292017268
 20
0.0078233095287423
 10
0.2371017787341678
 20
0.0028499274168343
 10
0.1675303098653416
 20
0.0028499274168343
 10
0.1916707713523564
 20
0.154063095897996
  0
LWPOLYLINE
  5
2A0B
102
{ACAD_REACTORS
330
2A07
102
}
330
2A02
100
AcDbEntity
  8
7
  6
Continuous
100
AcDbPolyline
 90
       11
 70
     0
 43
0.0
 10
0.2293064213789897
 20
0.048280934798647
 10
0.2328548456947885
 20
0.048280934798647
 10
0.2569953071818034
 20
0.0546792747066638
 10
0.2655171136095085
 20
0.0632010811343715
 10
0.2697640466488949
 20
0.0759698206014612
 10
0.2697640466488949
 20
0.0901635178646596
 10
0.2647906645369851
 20
0.0994117733648934
 10
0.255570349385696
 20
0.1050836642003841
 10
0.2420751608460776
 20
0.1065086219964924
 10
0.2385267365302788
 20
0.1065086219964924
 10
0.2293064213789897
 20
0.048280934798647
  0
LWPOLYLINE
  5
2A0C
102
{ACAD_REACTORS
330
2A04
102
}
330
2A02
100
AcDbEntity
  8
7
  6
Continuous
100
AcDbPolyline
 90
        6
 70
     0
 43
0.0
 10
0.1036307318320055
 20
0.0575012499499375
 10
0.1015072653123141
 20
0.0844916270291685
 10
0.1008087565887337
 20
0.1036587064042753
 10
0.0986852900690423
 20
0.1036587064042753
 10
0.0816416772136251
 20
0.0575012499499375
 10
0.1036307318320055
 20
0.0575012499499375
  0
LWPOLYLINE
  5
2A0D
102
{ACAD_REACTORS
330
2A07
102
}
330
2A02
100
AcDbEntity
  8
7
  6
Continuous
100
AcDbPolyline
 90
       15
 70
     0
 43
0.0
 10
0.6190742891380801
 20
0.154063095897996
 10
0.6716021451514928
 20
0.154063095897996
 10
0.707812837382015
 20
0.0702979297659705
 10
0.7092377951781224
 20
0.0702979297659705
 10
0.7106627529742298
 20
0.1086320885161838
 10
0.717759601605831
 20
0.154063095897996
 10
0.7710139066917705
 20
0.154063095897996
 10
0.7468734452047521
 20
0.0028499274168343
 10
0.6943455891913395
 20
0.0028499274168343
 10
0.6581348969608209
 20
0.0823681605094779
 10
0.6567099391647098
 20
0.0823681605094779
 10
0.6552849813686024
 20
0.0518293591144463
 10
0.6474616836644778
 20
0.0028499274168343
 10
0.5949338276510652
 20
0.0028499274168343
 10
0.6190742891380801
 20
0.154063095897996
  0
LWPOLYLINE
  5
2A0E
102
{ACAD_REACTORS
330
2A07
102
}
330
2A02
100
AcDbEntity
  8
7
  6
Continuous
100
AcDbPolyline
 90
        6
 70
     0
 43
0.0
 10
0.5232388922625475
 20
0.0575012499499375
 10
0.5210874853939133
 20
0.0844916270291685
 10
0.5203889766703327
 20
0.1036587064042753
 10
0.5182655101506413
 20
0.1036587064042753
 10
0.5012218972952242
 20
0.0575012499499375
 10
0.5232388922625475
 20
0.0575012499499375
  0
LWPOLYLINE
  5
2A0F
102
{ACAD_REACTORS
330
2A07
102
}
330
2A02
100
AcDbEntity
  8
7
  6
Continuous
100
AcDbPolyline
 90
       13
 70
     0
 43
0.0
 10
1.015240496805186
 20
0.154063095897996
 10
1.0713167771344
 20
0.154063095897996
 10
1.106102511568813
 20
0.1498161628586141
 10
1.132394379924461
 20
0.1355945252464723
 10
1.140888246003227
 20
0.1249492522990736
 10
1.147286585911241
 20
0.111454063759457
 10
1.148013034983769
 20
0.0759698206014612
 10
1.138066270759952
 20
0.04543101920643
 10
1.118172742312321
 20
0.0227155155155234
 10
1.091908814305615
 20
0.0078233095287423
 10
1.060671504187002
 20
0.0028499274168343
 10
0.9911000353181728
 20
0.0028499274168343
 10
1.015240496805186
 20
0.154063095897996
  0
LWPOLYLINE
  5
2A10
102
{ACAD_REACTORS
330
2A07
102
}
330
2A02
100
AcDbEntity
  8
7
  6
Continuous
100
AcDbPolyline
 90
       11
 70
     0
 43
0.0
 10
1.052876146831819
 20
0.048280934798647
 10
1.056424571147619
 20
0.048280934798647
 10
1.080565032634634
 20
0.0546792747066638
 10
1.0890588987134
 20
0.0632010811343715
 10
1.093333772101725
 20
0.0759698206014612
 10
1.093333772101725
 20
0.0901635178646596
 10
1.088360389989814
 20
0.0994117733648934
 10
1.079140074838526
 20
0.1050836642003841
 10
1.065644886298912
 20
0.1065086219964924
 10
1.062096461983109
 20
0.1065086219964924
 10
1.052876146831819
 20
0.048280934798647
  0
ENDBLK
  5
2A12
330
2A02
100
AcDbEntity
  8
0
100
AcDbBlockEnd
  0
BLOCK
  5
4F12
330
4F11
100
AcDbEntity
  8
0
 62
     2
100
AcDbBlockBegin
  2
SDCard
 70
     0
 10
0.0
 20
0.0
 30
0.0
  3
SDCard
  1

  0
LWPOLYLINE
  5
4F13
330
4F11
100
AcDbEntity
  8
SD Card
 62
     2
100
AcDbPolyline
 90
        4
 70
     1
 43
0.0
 10
-0.4725000000000004
 20
-0.1624999999999996
 10
0.4725000000000004
 20
-0.1624999999999996
 10
0.4725000000000004
 20
-0.0724999999999998
 10
-0.4725000000000004
 20
-0.0724999999999998
  0
LINE
  5
4F14
330
4F11
100
AcDbEntity
  8
SD Card
 62
     5
100
AcDbLine
 10
-0.5519999999999996
 20
-0.1724999999999999
 30
0.0
 11
0.5519999999999996
 21
-0.1724999999999999
 31
0.0
  0
LINE
  5
4F15
330
4F11
100
AcDbEntity
  8
SD Card
 62
     5
100
AcDbLine
 10
-0.5519999999999996
 20
-0.0625
 30
0.0
 11
0.5519999999999996
 21
-0.0625
 31
0.0
  0
LINE
  5
4F16
330
4F11
100
AcDbEntity
  8
SD Card
100
AcDbLine
 10
-0.75
 20
0.0
 30
0.0
 11
0.75
 21
0.0
 31
0.0
  0
LINE
  5
4F17
330
4F11
100
AcDbEntity
  8
SD Card
100
AcDbLine
 10
-0.75
 20
-0.0625
 30
0.0
 11
0.75
 21
-0.0625
 31
0.0
  0
LINE
  5
4F18
330
4F11
100
AcDbEntity
  8
SD Card
 62
     5
100
AcDbLine
 10
-0.5519999999999996
 20
-0.0625
 30
0.0
 11
-0.5519999999999996
 21
-0.1724999999999999
 31
0.0
  0
LINE
  5
4F19
330
4F11
100
AcDbEntity
  8
SD Card
 62
     5
100
AcDbLine
 10
-0.6219999999999999
 20
-0.0625
 30
0.0
 11
-0.6220000000000017
 21
-0.0705000000000005
 31
0.0
  0
LINE
  5
4F1A
330
4F11
100
AcDbEntity
  8
SD Card
 62
     5
100
AcDbLine
 10
-0.6219999999999999
 20
-0.0705
 30
0.0
 11
-0.5519999999999996
 21
-0.0705
 31
0.0
  0
LINE
  5
4F1B
330
4F11
100
AcDbEntity
  8
SD Card
 62
     5
100
AcDbLine
 10
-0.6219999999999999
 20
-0.0625
 30
0.0
 11
-0.5519999999999996
 21
-0.0625
 31
0.0
  0
LINE
  5
4F1C
330
4F11
100
AcDbEntity
  8
SD Card
100
AcDbLine
 10
-0.75
 20
0.0000000000000004
 30
0.0
 11
-0.75
 21
-0.0625
 31
0.0
  0
LINE
  5
4F1D
330
4F11
100
AcDbEntity
  8
SD Card
 62
     5
100
AcDbLine
 10
0.5519999999999996
 20
-0.0625
 30
0.0
 11
0.5519999999999996
 21
-0.1724999999999999
 31
0.0
  0
LINE
  5
4F1E
330
4F11
100
AcDbEntity
  8
SD Card
 62
     5
100
AcDbLine
 10
0.6219999999999999
 20
-0.0625
 30
0.0
 11
0.6219999999999981
 21
-0.0705000000000005
 31
0.0
  0
LINE
  5
4F1F
330
4F11
100
AcDbEntity
  8
SD Card
 62
     5
100
AcDbLine
 10
0.5519999999999996
 20
-0.0705
 30
0.0
 11
0.6219999999999999
 21
-0.0705
 31
0.0
  0
LINE
  5
4F20
330
4F11
100
AcDbEntity
  8
SD Card
 62
     5
100
AcDbLine
 10
0.5519999999999996
 20
-0.0625
 30
0.0
 11
0.6219999999999999
 21
-0.0625
 31
0.0
  0
LINE
  5
4F21
330
4F11
100
AcDbEntity
  8
SD Card
100
AcDbLine
 10
0.7499999999999984
 20
0.0000000000000004
 30
0.0
 11
0.75
 21
-0.0625
 31
0.0
  0
ENDBLK
  5
4F22
330
4F11
100
AcDbEntity
  8
0
 62
     2
100
AcDbBlockEnd
  0
BLOCK
  5
50AD
330
50AC
100
AcDbEntity
  8
0
100
AcDbBlockBegin
  2
LCD84
 70
     0
 10
0.0
 20
0.0
 30
0.0
  3
LCD84
  1

  0
LINE
  5
50AF
330
50AC
100
AcDbEntity
  8
OPTREX LCD
100
AcDbLine
 10
-3.769946188629431
 20
-2.785134128604283
 30
0.0
 11
4.084384520000583
 21
-2.785134128604283
 31
0.0
  0
LINE
  5
50B0
330
50AC
100
AcDbEntity
  8
OPTREX LCD
100
AcDbLine
 10
4.084384520000583
 20
-2.785134128604283
 30
0.0
 11
4.084384520000583
 21
3.081007603655705
 31
0.0
  0
LINE
  5
50B1
330
50AC
100
AcDbEntity
  8
OPTREX LCD
100
AcDbLine
 10
4.084384520000583
 20
3.081007603655705
 30
0.0
 11
-3.769946188629431
 21
3.081007603655705
 31
0.0
  0
LINE
  5
50B2
330
50AC
100
AcDbEntity
  8
OPTREX LCD
100
AcDbLine
 10
-3.769946188629431
 20
3.081007603655705
 30
0.0
 11
-3.769946188629431
 21
-2.785134128604283
 31
0.0
  0
LWPOLYLINE
  5
50B3
330
50AC
100
AcDbEntity
  8
OPTREX LCD
100
AcDbPolyline
 90
        4
 70
     1
 43
0.0
 10
-3.285694220127424
 20
-2.454425467188286
 10
3.600132551498575
 20
-2.454425467188286
 10
3.600132551498575
 20
2.750298942239708
 10
-3.285694220127424
 20
2.750298942239708
  0
LWPOLYLINE
  5
50B4
330
50AC
100
AcDbEntity
  8
OPTREX LCD
100
AcDbPolyline
 90
        4
 70
     1
 43
0.0
 10
-3.206560361859998
 20
-2.374897908133489
 10
3.520998693231176
 20
-2.374897908133489
 10
3.520998693231176
 20
2.670771383184912
 10
-3.206560361859998
 20
2.670771383184912
  0
ENDBLK
  5
50AE
330
50AC
100
AcDbEntity
  8
0
100
AcDbBlockEnd
  0
BLOCK
  5
50CC
330
50CA
100
AcDbEntity
  8
0
100
AcDbBlockBegin
  2
A$C4EDA28EF
 70
     0
 10
0.0
 20
0.0
 30
0.0
  3
A$C4EDA28EF
  1

  0
INSERT
  5
50CB
330
50CA
100
AcDbEntity
  8
SWITCH
100
AcDbBlockReference
  2
Switch
 10
0.245000028554351
 20
0.2350000172924496
 30
0.0
 41
-1.0
  0
ENDBLK
  5
50CD
330
50CA
100
AcDbEntity
  8
0
100
AcDbBlockEnd
  0
BLOCK
  5
673C
330
673B
100
AcDbEntity
  8
0
100
AcDbBlockBegin
  2
SW_CENTERMARKSYMBOL_4
 70
     0
 10
0.0
 20
0.0
 30
0.0
  3
SW_CENTERMARKSYMBOL_4
  1

  0
LINE
  5
673D
330
673B
100
AcDbEntity
  8
0
  6
Continuous
 62
     0
370
     0
100
AcDbLine
 10
0.0
 20
0.0
 30
0.0
 11
0.0
 21
0.0999999999999995
 31
0.0
  0
LINE
  5
673E
330
673B
100
AcDbEntity
  8
0
  6
Continuous
 62
     0
370
     0
100
AcDbLine
 10
0.0
 20
0.0
 30
0.0
 11
-0.0999999999999995
 21
0.0
 31
0.0
  0
LINE
  5
673F
330
673B
100
AcDbEntity
  8
0
  6
Continuous
 62
     0
370
     0
100
AcDbLine
 10
0.0
 20
0.0
 30
0.0
 11
0.0
 21
-0.0999999999999995
 31
0.0
  0
LINE
  5
6740
330
673B
100
AcDbEntity
  8
0
  6
Continuous
 62
     0
370
     0
100
AcDbLine
 10
0.0
 20
0.0
 30
0.0
 11
0.0999999999999995
 21
0.0
 31
0.0
  0
LINE
  5
6741
330
673B
100
AcDbEntity
  8
0
  6
Continuous
 62
     0
370
     0
100
AcDbLine
 10
0.0
 20
0.0999999999999995
 30
0.0
 11
0.0
 21
0.1747499999999995
 31
0.0
  0
LINE
  5
6742
330
673B
100
AcDbEntity
  8
0
  6
Continuous
 62
     0
370
     0
100
AcDbLine
 10
-0.0999999999999995
 20
0.0
 30
0.0
 11
-0.1747500000000017
 21
0.0
 31
0.0
  0
LINE
  5
6743
330
673B
100
AcDbEntity
  8
0
  6
Continuous
 62
     0
370
     0
100
AcDbLine
 10
0.0
 20
-0.0999999999999995
 30
0.0
 11
0.0
 21
-0.1747499999999995
 31
0.0
  0
LINE
  5
6744
330
673B
100
AcDbEntity
  8
0
  6
Continuous
 62
     0
370
     0
100
AcDbLine
 10
0.0999999999999995
 20
0.0
 30
0.0
 11
0.1747499999999995
 21
0.0
 31
0.0
  0
ENDBLK
  5
6745
330
673B
100
AcDbEntity
  8
0
100
AcDbBlockEnd
  0
BLOCK
  5
6747
330
6746
100
AcDbEntity
  8
0
100
AcDbBlockBegin
  2
SW_CENTERMARKSYMBOL_5
 70
     0
 10
0.0
 20
0.0
 30
0.0
  3
SW_CENTERMARKSYMBOL_5
  1

  0
LINE
  5
6748
330
6746
100
AcDbEntity
  8
0
  6
Continuous
 62
     0
370
     0
100
AcDbLine
 10
0.0
 20
0.0
 30
0.0
 11
0.0
 21
0.0999999999999995
 31
0.0
  0
LINE
  5
6749
330
6746
100
AcDbEntity
  8
0
  6
Continuous
 62
     0
370
     0
100
AcDbLine
 10
0.0
 20
0.0
 30
0.0
 11
-0.0999999999999995
 21
0.0
 31
0.0
  0
LINE
  5
674A
330
6746
100
AcDbEntity
  8
0
  6
Continuous
 62
     0
370
     0
100
AcDbLine
 10
0.0
 20
0.0
 30
0.0
 11
0.0
 21
-0.0999999999999995
 31
0.0
  0
LINE
  5
674B
330
6746
100
AcDbEntity
  8
0
  6
Continuous
 62
     0
370
     0
100
AcDbLine
 10
0.0
 20
0.0
 30
0.0
 11
0.1000000000000006
 21
0.0
 31
0.0
  0
LINE
  5
674C
330
6746
100
AcDbEntity
  8
0
  6
Continuous
 62
     0
370
     0
100
AcDbLine
 10
0.0
 20
0.0999999999999995
 30
0.0
 11
0.0
 21
0.1747499999999995
 31
0.0
  0
LINE
  5
674D
330
6746
100
AcDbEntity
  8
0
  6
Continuous
 62
     0
370
     0
100
AcDbLine
 10
-0.0999999999999995
 20
0.0
 30
0.0
 11
-0.1747500000000006
 21
0.0
 31
0.0
  0
LINE
  5
674E
330
6746
100
AcDbEntity
  8
0
  6
Continuous
 62
     0
370
     0
100
AcDbLine
 10
0.0
 20
-0.0999999999999995
 30
0.0
 11
0.0
 21
-0.1747499999999995
 31
0.0
  0
LINE
  5
674F
330
6746
100
AcDbEntity
  8
0
  6
Continuous
 62
     0
370
     0
100
AcDbLine
 10
0.1000000000000006
 20
0.0
 30
0.0
 11
0.1747500000000006
 21
0.0
 31
0.0
  0
ENDBLK
  5
6750
330
6746
100
AcDbEntity
  8
0
100
AcDbBlockEnd
  0
BLOCK
  5
6752
330
6751
100
AcDbEntity
  8
0
100
AcDbBlockBegin
  2
SW_CENTERMARKSYMBOL_6
 70
     0
 10
0.0
 20
0.0
 30
0.0
  3
SW_CENTERMARKSYMBOL_6
  1

  0
LINE
  5
6753
330
6751
100
AcDbEntity
  8
0
  6
Continuous
 62
     0
370
     0
100
AcDbLine
 10
0.0
 20
0.0
 30
0.0
 11
0.0
 21
0.0999999999999995
 31
0.0
  0
LINE
  5
6754
330
6751
100
AcDbEntity
  8
0
  6
Continuous
 62
     0
370
     0
100
AcDbLine
 10
0.0
 20
0.0
 30
0.0
 11
-0.0999999999999995
 21
0.0
 31
0.0
  0
LINE
  5
6755
330
6751
100
AcDbEntity
  8
0
  6
Continuous
 62
     0
370
     0
100
AcDbLine
 10
0.0
 20
0.0
 30
0.0
 11
0.0
 21
-0.0999999999999995
 31
0.0
  0
LINE
  5
6756
330
6751
100
AcDbEntity
  8
0
  6
Continuous
 62
     0
370
     0
100
AcDbLine
 10
0.0
 20
0.0
 30
0.0
 11
0.0999999999999995
 21
0.0
 31
0.0
  0
LINE
  5
6757
330
6751
100
AcDbEntity
  8
0
  6
Continuous
 62
     0
370
     0
100
AcDbLine
 10
0.0
 20
0.0999999999999995
 30
0.0
 11
0.0
 21
0.1747499999999995
 31
0.0
  0
LINE
  5
6758
330
6751
100
AcDbEntity
  8
0
  6
Continuous
 62
     0
370
     0
100
AcDbLine
 10
-0.0999999999999995
 20
0.0
 30
0.0
 11
-0.1747499999999995
 21
0.0
 31
0.0
  0
LINE
  5
6759
330
6751
100
AcDbEntity
  8
0
  6
Continuous
 62
     0
370
     0
100
AcDbLine
 10
0.0
 20
-0.0999999999999995
 30
0.0
 11
0.0
 21
-0.1747499999999995
 31
0.0
  0
LINE
  5
675A
330
6751
100
AcDbEntity
  8
0
  6
Continuous
 62
     0
370
     0
100
AcDbLine
 10
0.0999999999999995
 20
0.0
 30
0.0
 11
0.1747499999999995
 21
0.0
 31
0.0
  0
ENDBLK
  5
675B
330
6751
100
AcDbEntity
  8
0
100
AcDbBlockEnd
  0
BLOCK
  5
675D
330
675C
100
AcDbEntity
  8
0
100
AcDbBlockBegin
  2
SW_CENTERMARKSYMBOL_7
 70
     0
 10
0.0
 20
0.0
 30
0.0
  3
SW_CENTERMARKSYMBOL_7
  1

  0
LINE
  5
675E
330
675C
100
AcDbEntity
  8
0
  6
Continuous
 62
     0
370
     0
100
AcDbLine
 10
0.0
 20
0.0
 30
0.0
 11
0.0
 21
0.0999999999999995
 31
0.0
  0
LINE
  5
675F
330
675C
100
AcDbEntity
  8
0
  6
Continuous
 62
     0
370
     0
100
AcDbLine
 10
0.0
 20
0.0
 30
0.0
 11
-0.0999999999999995
 21
0.0
 31
0.0
  0
LINE
  5
6760
330
675C
100
AcDbEntity
  8
0
  6
Continuous
 62
     0
370
     0
100
AcDbLine
 10
0.0
 20
0.0
 30
0.0
 11
0.0
 21
-0.1000000000000017
 31
0.0
  0
LINE
  5
6761
330
675C
100
AcDbEntity
  8
0
  6
Continuous
 62
     0
370
     0
100
AcDbLine
 10
0.0
 20
0.0
 30
0.0
 11
0.0999999999999995
 21
0.0
 31
0.0
  0
LINE
  5
6762
330
675C
100
AcDbEntity
  8
0
  6
Continuous
 62
     0
370
     0
100
AcDbLine
 10
0.0
 20
0.0999999999999995
 30
0.0
 11
0.0
 21
0.1747499999999995
 31
0.0
  0
LINE
  5
6763
330
675C
100
AcDbEntity
  8
0
  6
Continuous
 62
     0
370
     0
100
AcDbLine
 10
-0.0999999999999995
 20
0.0
 30
0.0
 11
-0.1747499999999995
 21
0.0
 31
0.0
  0
LINE
  5
6764
330
675C
100
AcDbEntity
  8
0
  6
Continuous
 62
     0
370
     0
100
AcDbLine
 10
0.0
 20
-0.1000000000000017
 30
0.0
 11
0.0
 21
-0.1747499999999995
 31
0.0
  0
LINE
  5
6765
330
675C
100
AcDbEntity
  8
0
  6
Continuous
 62
     0
370
     0
100
AcDbLine
 10
0.0999999999999995
 20
0.0
 30
0.0
 11
0.1747499999999995
 21
0.0
 31
0.0
  0
ENDBLK
  5
6766
330
675C
100
AcDbEntity
  8
0
100
AcDbBlockEnd
  0
BLOCK
  5
6768
330
6767
100
AcDbEntity
  8
0
100
AcDbBlockBegin
  2
SW_CENTERMARKSYMBOL_8
 70
     0
 10
0.0
 20
0.0
 30
0.0
  3
SW_CENTERMARKSYMBOL_8
  1

  0
LINE
  5
6769
330
6767
100
AcDbEntity
  8
0
  6
Continuous
 62
     0
370
     0
100
AcDbLine
 10
0.0
 20
0.0
 30
0.0
 11
0.0
 21
0.0999999999999995
 31
0.0
  0
LINE
  5
676A
330
6767
100
AcDbEntity
  8
0
  6
Continuous
 62
     0
370
     0
100
AcDbLine
 10
0.0
 20
0.0
 30
0.0
 11
-0.0999999999999995
 21
0.0
 31
0.0
  0
LINE
  5
676B
330
6767
100
AcDbEntity
  8
0
  6
Continuous
 62
     0
370
     0
100
AcDbLine
 10
0.0
 20
0.0
 30
0.0
 11
0.0
 21
-0.0999999999999995
 31
0.0
  0
LINE
  5
676C
330
6767
100
AcDbEntity
  8
0
  6
Continuous
 62
     0
370
     0
100
AcDbLine
 10
0.0
 20
0.0
 30
0.0
 11
0.0999999999999995
 21
0.0
 31
0.0
  0
LINE
  5
676D
330
6767
100
AcDbEntity
  8
0
  6
Continuous
 62
     0
370
     0
100
AcDbLine
 10
0.0
 20
0.0999999999999995
 30
0.0
 11
0.0
 21
0.1747499999999995
 31
0.0
  0
LINE
  5
676E
330
6767
100
AcDbEntity
  8
0
  6
Continuous
 62
     0
370
     0
100
AcDbLine
 10
-0.0999999999999995
 20
0.0
 30
0.0
 11
-0.1747499999999995
 21
0.0
 31
0.0
  0
LINE
  5
676F
330
6767
100
AcDbEntity
  8
0
  6
Continuous
 62
     0
370
     0
100
AcDbLine
 10
0.0
 20
-0.0999999999999995
 30
0.0
 11
0.0
 21
-0.1747499999999995
 31
0.0
  0
LINE
  5
6770
330
6767
100
AcDbEntity
  8
0
  6
Continuous
 62
     0
370
     0
100
AcDbLine
 10
0.0999999999999995
 20
0.0
 30
0.0
 11
0.1747499999999995
 21
0.0
 31
0.0
  0
ENDBLK
  5
6771
330
6767
100
AcDbEntity
  8
0
100
AcDbBlockEnd
  0
BLOCK
  5
6773
330
6772
100
AcDbEntity
  8
0
100
AcDbBlockBegin
  2
SW_CENTERMARKSYMBOL_9
 70
     0
 10
0.0
 20
0.0
 30
0.0
  3
SW_CENTERMARKSYMBOL_9
  1

  0
LINE
  5
6774
330
6772
100
AcDbEntity
  8
0
  6
Continuous
 62
     0
370
     0
100
AcDbLine
 10
0.0
 20
0.0
 30
0.0
 11
0.0
 21
0.0999999999999995
 31
0.0
  0
LINE
  5
6775
330
6772
100
AcDbEntity
  8
0
  6
Continuous
 62
     0
370
     0
100
AcDbLine
 10
0.0
 20
0.0
 30
0.0
 11
-0.1
 21
0.0
 31
0.0
  0
LINE
  5
6776
330
6772
100
AcDbEntity
  8
0
  6
Continuous
 62
     0
370
     0
100
AcDbLine
 10
0.0
 20
0.0
 30
0.0
 11
0.0
 21
-0.0999999999999995
 31
0.0
  0
LINE
  5
6777
330
6772
100
AcDbEntity
  8
0
  6
Continuous
 62
     0
370
     0
100
AcDbLine
 10
0.0
 20
0.0
 30
0.0
 11
0.1
 21
0.0
 31
0.0
  0
LINE
  5
6778
330
6772
100
AcDbEntity
  8
0
  6
Continuous
 62
     0
370
     0
100
AcDbLine
 10
0.0
 20
0.0999999999999995
 30
0.0
 11
0.0
 21
0.1747499999999995
 31
0.0
  0
LINE
  5
6779
330
6772
100
AcDbEntity
  8
0
  6
Continuous
 62
     0
370
     0
100
AcDbLine
 10
-0.1
 20
0.0
 30
0.0
 11
-0.1747499999999995
 21
0.0
 31
0.0
  0
LINE
  5
677A
330
6772
100
AcDbEntity
  8
0
  6
Continuous
 62
     0
370
     0
100
AcDbLine
 10
0.0
 20
-0.0999999999999995
 30
0.0
 11
0.0
 21
-0.1747499999999995
 31
0.0
  0
LINE
  5
677B
330
6772
100
AcDbEntity
  8
0
  6
Continuous
 62
     0
370
     0
100
AcDbLine
 10
0.1
 20
0.0
 30
0.0
 11
0.1747499999999995
 21
0.0
 31
0.0
  0
ENDBLK
  5
677C
330
6772
100
AcDbEntity
  8
0
100
AcDbBlockEnd
  0
BLOCK
  5
677E
330
677D
100
AcDbEntity
  8
0
100
AcDbBlockBegin
  2
SW_CENTERMARKSYMBOL_10
 70
     0
 10
0.0
 20
0.0
 30
0.0
  3
SW_CENTERMARKSYMBOL_10
  1

  0
LINE
  5
677F
330
677D
100
AcDbEntity
  8
0
  6
Continuous
 62
     0
370
     0
100
AcDbLine
 10
0.0
 20
0.0
 30
0.0
 11
0.0
 21
0.0999999999999995
 31
0.0
  0
LINE
  5
6780
330
677D
100
AcDbEntity
  8
0
  6
Continuous
 62
     0
370
     0
100
AcDbLine
 10
0.0
 20
0.0
 30
0.0
 11
-0.1000000000000006
 21
0.0
 31
0.0
  0
LINE
  5
6781
330
677D
100
AcDbEntity
  8
0
  6
Continuous
 62
     0
370
     0
100
AcDbLine
 10
0.0
 20
0.0
 30
0.0
 11
0.0
 21
-0.0999999999999995
 31
0.0
  0
LINE
  5
6782
330
677D
100
AcDbEntity
  8
0
  6
Continuous
 62
     0
370
     0
100
AcDbLine
 10
0.0
 20
0.0
 30
0.0
 11
0.1000000000000006
 21
0.0
 31
0.0
  0
LINE
  5
6783
330
677D
100
AcDbEntity
  8
0
  6
Continuous
 62
     0
370
     0
100
AcDbLine
 10
0.0
 20
0.0999999999999995
 30
0.0
 11
0.0
 21
0.1747500000000017
 31
0.0
  0
LINE
  5
6784
330
677D
100
AcDbEntity
  8
0
  6
Continuous
 62
     0
370
     0
100
AcDbLine
 10
-0.1000000000000006
 20
0.0
 30
0.0
 11
-0.1747500000000006
 21
0.0
 31
0.0
  0
LINE
  5
6785
330
677D
100
AcDbEntity
  8
0
  6
Continuous
 62
     0
370
     0
100
AcDbLine
 10
0.0
 20
-0.0999999999999995
 30
0.0
 11
0.0
 21
-0.1747499999999995
 31
0.0
  0
LINE
  5
6786
330
677D
100
AcDbEntity
  8
0
  6
Continuous
 62
     0
370
     0
100
AcDbLine
 10
0.1000000000000006
 20
0.0
 30
0.0
 11
0.1747500000000006
 21
0.0
 31
0.0
  0
ENDBLK
  5
6787
330
677D
100
AcDbEntity
  8
0
100
AcDbBlockEnd
  0
BLOCK
  5
6789
330
6788
100
AcDbEntity
  8
0
100
AcDbBlockBegin
  2
SW_CENTERMARKSYMBOL_11
 70
     0
 10
0.0
 20
0.0
 30
0.0
  3
SW_CENTERMARKSYMBOL_11
  1

  0
LINE
  5
678A
330
6788
100
AcDbEntity
  8
0
  6
Continuous
 62
     0
370
     0
100
AcDbLine
 10
0.0
 20
0.0
 30
0.0
 11
0.0
 21
0.0999999999999995
 31
0.0
  0
LINE
  5
678B
330
6788
100
AcDbEntity
  8
0
  6
Continuous
 62
     0
370
     0
100
AcDbLine
 10
0.0
 20
0.0
 30
0.0
 11
-0.0999999999999995
 21
0.0
 31
0.0
  0
LINE
  5
678C
330
6788
100
AcDbEntity
  8
0
  6
Continuous
 62
     0
370
     0
100
AcDbLine
 10
0.0
 20
0.0
 30
0.0
 11
0.0
 21
-0.0999999999999995
 31
0.0
  0
LINE
  5
678D
330
6788
100
AcDbEntity
  8
0
  6
Continuous
 62
     0
370
     0
100
AcDbLine
 10
0.0
 20
0.0
 30
0.0
 11
0.0999999999999995
 21
0.0
 31
0.0
  0
LINE
  5
678E
330
6788
100
AcDbEntity
  8
0
  6
Continuous
 62
     0
370
     0
100
AcDbLine
 10
0.0
 20
0.0999999999999995
 30
0.0
 11
0.0
 21
0.1747499999999995
 31
0.0
  0
LINE
  5
678F
330
6788
100
AcDbEntity
  8
0
  6
Continuous
 62
     0
370
     0
100
AcDbLine
 10
-0.0999999999999995
 20
0.0
 30
0.0
 11
-0.1747500000000017
 21
0.0
 31
0.0
  0
LINE
  5
6790
330
6788
100
AcDbEntity
  8
0
  6
Continuous
 62
     0
370
     0
100
AcDbLine
 10
0.0
 20
-0.0999999999999995
 30
0.0
 11
0.0
 21
-0.3140422999842666
 31
0.0
  0
LINE
  5
6791
330
6788
100
AcDbEntity
  8
0
  6
Continuous
 62
     0
370
     0
100
AcDbLine
 10
0.0999999999999995
 20
0.0
 30
0.0
 11
0.1747499999999995
 21
0.0
 31
0.0
  0
ENDBLK
  5
6792
330
6788
100
AcDbEntity
  8
0
100
AcDbBlockEnd
  0
BLOCK
  5
6794
330
6793
100
AcDbEntity
  8
0
100
AcDbBlockBegin
  2
SW_CENTERMARKSYMBOL_12
 70
     0
 10
0.0
 20
0.0
 30
0.0
  3
SW_CENTERMARKSYMBOL_12
  1

  0
LINE
  5
6795
330
6793
100
AcDbEntity
  8
0
  6
Continuous
 62
     0
370
     0
100
AcDbLine
 10
0.0
 20
0.0
 30
0.0
 11
0.0
 21
0.0999999999999995
 31
0.0
  0
LINE
  5
6796
330
6793
100
AcDbEntity
  8
0
  6
Continuous
 62
     0
370
     0
100
AcDbLine
 10
0.0
 20
0.0
 30
0.0
 11
-0.0999999999999995
 21
0.0
 31
0.0
  0
LINE
  5
6797
330
6793
100
AcDbEntity
  8
0
  6
Continuous
 62
     0
370
     0
100
AcDbLine
 10
0.0
 20
0.0
 30
0.0
 11
0.0
 21
-0.1000000000000017
 31
0.0
  0
LINE
  5
6798
330
6793
100
AcDbEntity
  8
0
  6
Continuous
 62
     0
370
     0
100
AcDbLine
 10
0.0
 20
0.0
 30
0.0
 11
0.0999999999999995
 21
0.0
 31
0.0
  0
LINE
  5
6799
330
6793
100
AcDbEntity
  8
0
  6
Continuous
 62
     0
370
     0
100
AcDbLine
 10
0.0
 20
0.0999999999999995
 30
0.0
 11
0.0
 21
0.1747499999999995
 31
0.0
  0
LINE
  5
679A
330
6793
100
AcDbEntity
  8
0
  6
Continuous
 62
     0
370
     0
100
AcDbLine
 10
-0.0999999999999995
 20
0.0
 30
0.0
 11
-0.1747499999999995
 21
0.0
 31
0.0
  0
LINE
  5
679B
330
6793
100
AcDbEntity
  8
0
  6
Continuous
 62
     0
370
     0
100
AcDbLine
 10
0.0
 20
-0.1000000000000017
 30
0.0
 11
0.0
 21
-0.1747500000000017
 31
0.0
  0
LINE
  5
679C
330
6793
100
AcDbEntity
  8
0
  6
Continuous
 62
     0
370
     0
100
AcDbLine
 10
0.0999999999999995
 20
0.0
 30
0.0
 11
0.1747500000000017
 21
0.0
 31
0.0
  0
ENDBLK
  5
679D
330
6793
100
AcDbEntity
  8
0
100
AcDbBlockEnd
  0
BLOCK
  5
67BB
330
67BA
100
AcDbEntity
  8
0
100
AcDbBlockBegin
  2
SW_CENTERMARKSYMBOL_13
 70
     0
 10
0.0
 20
0.0
 30
0.0
  3
SW_CENTERMARKSYMBOL_13
  1

  0
LINE
  5
67BC
330
67BA
100
AcDbEntity
  8
0
  6
Continuous
 62
     0
370
     0
100
AcDbLine
 10
0.0
 20
0.0
 30
0.0
 11
0.0
 21
0.0999999999999995
 31
0.0
  0
LINE
  5
67BD
330
67BA
100
AcDbEntity
  8
0
  6
Continuous
 62
     0
370
     0
100
AcDbLine
 10
0.0
 20
0.0
 30
0.0
 11
-0.0999999999999995
 21
0.0
 31
0.0
  0
LINE
  5
67BE
330
67BA
100
AcDbEntity
  8
0
  6
Continuous
 62
     0
370
     0
100
AcDbLine
 10
0.0
 20
0.0
 30
0.0
 11
0.0
 21
-0.0999999999999995
 31
0.0
  0
LINE
  5
67BF
330
67BA
100
AcDbEntity
  8
0
  6
Continuous
 62
     0
370
     0
100
AcDbLine
 10
0.0
 20
0.0
 30
0.0
 11
0.0999999999999995
 21
0.0
 31
0.0
  0
LINE
  5
67C0
330
67BA
100
AcDbEntity
  8
0
  6
Continuous
 62
     0
370
     0
100
AcDbLine
 10
0.0
 20
0.0999999999999995
 30
0.0
 11
0.0
 21
0.1747499999999995
 31
0.0
  0
LINE
  5
67C1
330
67BA
100
AcDbEntity
  8
0
  6
Continuous
 62
     0
370
     0
100
AcDbLine
 10
-0.0999999999999995
 20
0.0
 30
0.0
 11
-0.1747499999999995
 21
0.0
 31
0.0
  0
LINE
  5
67C2
330
67BA
100
AcDbEntity
  8
0
  6
Continuous
 62
     0
370
     0
100
AcDbLine
 10
0.0
 20
-0.0999999999999995
 30
0.0
 11
0.0
 21
-0.1747499999999995
 31
0.0
  0
LINE
  5
67C3
330
67BA
100
AcDbEntity
  8
0
  6
Continuous
 62
     0
370
     0
100
AcDbLine
 10
0.0999999999999995
 20
0.0
 30
0.0
 11
0.1747499999999995
 21
0.0
 31
0.0
  0
ENDBLK
  5
67C4
330
67BA
100
AcDbEntity
  8
0
100
AcDbBlockEnd
  0
BLOCK
  5
67C6
330
67C5
100
AcDbEntity
  8
0
100
AcDbBlockBegin
  2
SW_CENTERMARKSYMBOL_14
 70
     0
 10
0.0
 20
0.0
 30
0.0
  3
SW_CENTERMARKSYMBOL_14
  1

  0
LINE
  5
67C7
330
67C5
100
AcDbEntity
  8
0
  6
Continuous
 62
     0
370
     0
100
AcDbLine
 10
0.0
 20
0.0
 30
0.0
 11
0.0
 21
0.0999999999999995
 31
0.0
  0
LINE
  5
67C8
330
67C5
100
AcDbEntity
  8
0
  6
Continuous
 62
     0
370
     0
100
AcDbLine
 10
0.0
 20
0.0
 30
0.0
 11
-0.0999999999999995
 21
0.0
 31
0.0
  0
LINE
  5
67C9
330
67C5
100
AcDbEntity
  8
0
  6
Continuous
 62
     0
370
     0
100
AcDbLine
 10
0.0
 20
0.0
 30
0.0
 11
0.0
 21
-0.0999999999999995
 31
0.0
  0
LINE
  5
67CA
330
67C5
100
AcDbEntity
  8
0
  6
Continuous
 62
     0
370
     0
100
AcDbLine
 10
0.0
 20
0.0
 30
0.0
 11
0.0999999999999995
 21
0.0
 31
0.0
  0
LINE
  5
67CB
330
67C5
100
AcDbEntity
  8
0
  6
Continuous
 62
     0
370
     0
100
AcDbLine
 10
0.0
 20
0.0999999999999995
 30
0.0
 11
0.0
 21
0.1747499999999995
 31
0.0
  0
LINE
  5
67CC
330
67C5
100
AcDbEntity
  8
0
  6
Continuous
 62
     0
370
     0
100
AcDbLine
 10
-0.0999999999999995
 20
0.0
 30
0.0
 11
-0.1747499999999995
 21
0.0
 31
0.0
  0
LINE
  5
67CD
330
67C5
100
AcDbEntity
  8
0
  6
Continuous
 62
     0
370
     0
100
AcDbLine
 10
0.0
 20
-0.0999999999999995
 30
0.0
 11
0.0
 21
-0.1747499999999995
 31
0.0
  0
LINE
  5
67CE
330
67C5
100
AcDbEntity
  8
0
  6
Continuous
 62
     0
370
     0
100
AcDbLine
 10
0.0999999999999995
 20
0.0
 30
0.0
 11
0.1747499999999995
 21
0.0
 31
0.0
  0
ENDBLK
  5
67CF
330
67C5
100
AcDbEntity
  8
0
100
AcDbBlockEnd
  0
BLOCK
  5
67D1
330
67D0
100
AcDbEntity
  8
0
100
AcDbBlockBegin
  2
SW_CENTERMARKSYMBOL_15
 70
     0
 10
0.0
 20
0.0
 30
0.0
  3
SW_CENTERMARKSYMBOL_15
  1

  0
LINE
  5
67D2
330
67D0
100
AcDbEntity
  8
0
  6
Continuous
 62
     0
370
     0
100
AcDbLine
 10
0.0
 20
0.0
 30
0.0
 11
0.0
 21
0.0999999999999995
 31
0.0
  0
LINE
  5
67D3
330
67D0
100
AcDbEntity
  8
0
  6
Continuous
 62
     0
370
     0
100
AcDbLine
 10
0.0
 20
0.0
 30
0.0
 11
-0.0999999999999995
 21
0.0
 31
0.0
  0
LINE
  5
67D4
330
67D0
100
AcDbEntity
  8
0
  6
Continuous
 62
     0
370
     0
100
AcDbLine
 10
0.0
 20
0.0
 30
0.0
 11
0.0
 21
-0.0999999999999995
 31
0.0
  0
LINE
  5
67D5
330
67D0
100
AcDbEntity
  8
0
  6
Continuous
 62
     0
370
     0
100
AcDbLine
 10
0.0
 20
0.0
 30
0.0
 11
0.0999999999999995
 21
0.0
 31
0.0
  0
LINE
  5
67D6
330
67D0
100
AcDbEntity
  8
0
  6
Continuous
 62
     0
370
     0
100
AcDbLine
 10
0.0
 20
0.0999999999999995
 30
0.0
 11
0.0
 21
0.1747499999999995
 31
0.0
  0
LINE
  5
67D7
330
67D0
100
AcDbEntity
  8
0
  6
Continuous
 62
     0
370
     0
100
AcDbLine
 10
-0.0999999999999995
 20
0.0
 30
0.0
 11
-0.1747499999999995
 21
0.0
 31
0.0
  0
LINE
  5
67D8
330
67D0
100
AcDbEntity
  8
0
  6
Continuous
 62
     0
370
     0
100
AcDbLine
 10
0.0
 20
-0.0999999999999995
 30
0.0
 11
0.0
 21
-0.1747499999999995
 31
0.0
  0
LINE
  5
67D9
330
67D0
100
AcDbEntity
  8
0
  6
Continuous
 62
     0
370
     0
100
AcDbLine
 10
0.0999999999999995
 20
0.0
 30
0.0
 11
0.1747499999999995
 21
0.0
 31
0.0
  0
ENDBLK
  5
67DA
330
67D0
100
AcDbEntity
  8
0
100
AcDbBlockEnd
  0
BLOCK
  5
67DC
330
67DB
100
AcDbEntity
  8
0
100
AcDbBlockBegin
  2
SW_CENTERMARKSYMBOL_16
 70
     0
 10
0.0
 20
0.0
 30
0.0
  3
SW_CENTERMARKSYMBOL_16
  1

  0
LINE
  5
67DD
330
67DB
100
AcDbEntity
  8
0
  6
Continuous
 62
     0
370
     0
100
AcDbLine
 10
0.0
 20
0.0
 30
0.0
 11
0.0
 21
0.1000000000000038
 31
0.0
  0
LINE
  5
67DE
330
67DB
100
AcDbEntity
  8
0
  6
Continuous
 62
     0
370
     0
100
AcDbLine
 10
0.0
 20
0.0
 30
0.0
 11
-0.0999999999999995
 21
0.0
 31
0.0
  0
LINE
  5
67DF
330
67DB
100
AcDbEntity
  8
0
  6
Continuous
 62
     0
370
     0
100
AcDbLine
 10
0.0
 20
0.0
 30
0.0
 11
0.0
 21
-0.0999999999999995
 31
0.0
  0
LINE
  5
67E0
330
67DB
100
AcDbEntity
  8
0
  6
Continuous
 62
     0
370
     0
100
AcDbLine
 10
0.0
 20
0.0
 30
0.0
 11
0.0999999999999995
 21
0.0
 31
0.0
  0
LINE
  5
67E1
330
67DB
100
AcDbEntity
  8
0
  6
Continuous
 62
     0
370
     0
100
AcDbLine
 10
0.0
 20
0.1000000000000038
 30
0.0
 11
0.0
 21
0.1747500000000039
 31
0.0
  0
LINE
  5
67E2
330
67DB
100
AcDbEntity
  8
0
  6
Continuous
 62
     0
370
     0
100
AcDbLine
 10
-0.0999999999999995
 20
0.0
 30
0.0
 11
-0.1747499999999995
 21
0.0
 31
0.0
  0
LINE
  5
67E3
330
67DB
100
AcDbEntity
  8
0
  6
Continuous
 62
     0
370
     0
100
AcDbLine
 10
0.0
 20
-0.0999999999999995
 30
0.0
 11
0.0
 21
-0.1747499999999995
 31
0.0
  0
LINE
  5
67E4
330
67DB
100
AcDbEntity
  8
0
  6
Continuous
 62
     0
370
     0
100
AcDbLine
 10
0.0999999999999995
 20
0.0
 30
0.0
 11
0.1747499999999995
 21
0.0
 31
0.0
  0
ENDBLK
  5
67E5
330
67DB
100
AcDbEntity
  8
0
100
AcDbBlockEnd
  0
BLOCK
  5
67E7
330
67E6
100
AcDbEntity
  8
0
100
AcDbBlockBegin
  2
SW_CENTERMARKSYMBOL_17
 70
     0
 10
0.0
 20
0.0
 30
0.0
  3
SW_CENTERMARKSYMBOL_17
  1

  0
LINE
  5
67E8
330
67E6
100
AcDbEntity
  8
0
  6
Continuous
 62
     0
370
     0
100
AcDbLine
 10
0.0
 20
0.0
 30
0.0
 11
0.0
 21
0.0999999999999995
 31
0.0
  0
LINE
  5
67E9
330
67E6
100
AcDbEntity
  8
0
  6
Continuous
 62
     0
370
     0
100
AcDbLine
 10
0.0
 20
0.0
 30
0.0
 11
-0.0999999999999995
 21
0.0
 31
0.0
  0
LINE
  5
67EA
330
67E6
100
AcDbEntity
  8
0
  6
Continuous
 62
     0
370
     0
100
AcDbLine
 10
0.0
 20
0.0
 30
0.0
 11
0.0
 21
-0.0999999999999995
 31
0.0
  0
LINE
  5
67EB
330
67E6
100
AcDbEntity
  8
0
  6
Continuous
 62
     0
370
     0
100
AcDbLine
 10
0.0
 20
0.0
 30
0.0
 11
0.0999999999999995
 21
0.0
 31
0.0
  0
LINE
  5
67EC
330
67E6
100
AcDbEntity
  8
0
  6
Continuous
 62
     0
370
     0
100
AcDbLine
 10
0.0
 20
0.0999999999999995
 30
0.0
 11
0.0
 21
0.1747499999999995
 31
0.0
  0
LINE
  5
67ED
330
67E6
100
AcDbEntity
  8
0
  6
Continuous
 62
     0
370
     0
100
AcDbLine
 10
-0.0999999999999995
 20
0.0
 30
0.0
 11
-0.1747499999999995
 21
0.0
 31
0.0
  0
LINE
  5
67EE
330
67E6
100
AcDbEntity
  8
0
  6
Continuous
 62
     0
370
     0
100
AcDbLine
 10
0.0
 20
-0.0999999999999995
 30
0.0
 11
0.0
 21
-0.1747499999999995
 31
0.0
  0
LINE
  5
67EF
330
67E6
100
AcDbEntity
  8
0
  6
Continuous
 62
     0
370
     0
100
AcDbLine
 10
0.0999999999999995
 20
0.0
 30
0.0
 11
0.1747499999999995
 21
0.0
 31
0.0
  0
ENDBLK
  5
67F0
330
67E6
100
AcDbEntity
  8
0
100
AcDbBlockEnd
  0
BLOCK
  5
67F2
330
67F1
100
AcDbEntity
  8
0
100
AcDbBlockBegin
  2
SW_CENTERMARKSYMBOL_18
 70
     0
 10
0.0
 20
0.0
 30
0.0
  3
SW_CENTERMARKSYMBOL_18
  1

  0
LINE
  5
67F3
330
67F1
100
AcDbEntity
  8
0
  6
Continuous
 62
     0
370
     0
100
AcDbLine
 10
0.0
 20
0.0
 30
0.0
 11
0.0
 21
0.0999999999999995
 31
0.0
  0
LINE
  5
67F4
330
67F1
100
AcDbEntity
  8
0
  6
Continuous
 62
     0
370
     0
100
AcDbLine
 10
0.0
 20
0.0
 30
0.0
 11
-0.0999999999999995
 21
0.0
 31
0.0
  0
LINE
  5
67F5
330
67F1
100
AcDbEntity
  8
0
  6
Continuous
 62
     0
370
     0
100
AcDbLine
 10
0.0
 20
0.0
 30
0.0
 11
0.0
 21
-0.0999999999999995
 31
0.0
  0
LINE
  5
67F6
330
67F1
100
AcDbEntity
  8
0
  6
Continuous
 62
     0
370
     0
100
AcDbLine
 10
0.0
 20
0.0
 30
0.0
 11
0.0999999999999995
 21
0.0
 31
0.0
  0
LINE
  5
67F7
330
67F1
100
AcDbEntity
  8
0
  6
Continuous
 62
     0
370
     0
100
AcDbLine
 10
0.0
 20
0.0999999999999995
 30
0.0
 11
0.0
 21
0.1747499999999995
 31
0.0
  0
LINE
  5
67F8
330
67F1
100
AcDbEntity
  8
0
  6
Continuous
 62
     0
370
     0
100
AcDbLine
 10
-0.0999999999999995
 20
0.0
 30
0.0
 11
-0.1747499999999995
 21
0.0
 31
0.0
  0
LINE
  5
67F9
330
67F1
100
AcDbEntity
  8
0
  6
Continuous
 62
     0
370
     0
100
AcDbLine
 10
0.0
 20
-0.0999999999999995
 30
0.0
 11
0.0
 21
-0.1747499999999995
 31
0.0
  0
LINE
  5
67FA
330
67F1
100
AcDbEntity
  8
0
  6
Continuous
 62
     0
370
     0
100
AcDbLine
 10
0.0999999999999995
 20
0.0
 30
0.0
 11
0.1747499999999995
 21
0.0
 31
0.0
  0
ENDBLK
  5
67FB
330
67F1
100
AcDbEntity
  8
0
100
AcDbBlockEnd
  0
BLOCK
  5
67FD
330
67FC
100
AcDbEntity
  8
0
100
AcDbBlockBegin
  2
SW_CENTERMARKSYMBOL_19
 70
     0
 10
0.0
 20
0.0
 30
0.0
  3
SW_CENTERMARKSYMBOL_19
  1

  0
LINE
  5
67FE
330
67FC
100
AcDbEntity
  8
0
  6
Continuous
 62
     0
370
     0
100
AcDbLine
 10
0.0
 20
0.0
 30
0.0
 11
0.0
 21
0.0999999999999995
 31
0.0
  0
LINE
  5
67FF
330
67FC
100
AcDbEntity
  8
0
  6
Continuous
 62
     0
370
     0
100
AcDbLine
 10
0.0
 20
0.0
 30
0.0
 11
-0.0999999999999995
 21
0.0
 31
0.0
  0
LINE
  5
6800
330
67FC
100
AcDbEntity
  8
0
  6
Continuous
 62
     0
370
     0
100
AcDbLine
 10
0.0
 20
0.0
 30
0.0
 11
0.0
 21
-0.0999999999999995
 31
0.0
  0
LINE
  5
6801
330
67FC
100
AcDbEntity
  8
0
  6
Continuous
 62
     0
370
     0
100
AcDbLine
 10
0.0
 20
0.0
 30
0.0
 11
0.0999999999999995
 21
0.0
 31
0.0
  0
LINE
  5
6802
330
67FC
100
AcDbEntity
  8
0
  6
Continuous
 62
     0
370
     0
100
AcDbLine
 10
0.0
 20
0.0999999999999995
 30
0.0
 11
0.0
 21
0.1747499999999995
 31
0.0
  0
LINE
  5
6803
330
67FC
100
AcDbEntity
  8
0
  6
Continuous
 62
     0
370
     0
100
AcDbLine
 10
-0.0999999999999995
 20
0.0
 30
0.0
 11
-0.1747499999999995
 21
0.0
 31
0.0
  0
LINE
  5
6804
330
67FC
100
AcDbEntity
  8
0
  6
Continuous
 62
     0
370
     0
100
AcDbLine
 10
0.0
 20
-0.0999999999999995
 30
0.0
 11
0.0
 21
-0.1747499999999995
 31
0.0
  0
LINE
  5
6805
330
67FC
100
AcDbEntity
  8
0
  6
Continuous
 62
     0
370
     0
100
AcDbLine
 10
0.0999999999999995
 20
0.0
 30
0.0
 11
0.1747499999999995
 21
0.0
 31
0.0
  0
ENDBLK
  5
6806
330
67FC
100
AcDbEntity
  8
0
100
AcDbBlockEnd
  0
BLOCK
  5
6808
330
6807
100
AcDbEntity
  8
0
100
AcDbBlockBegin
  2
SW_CENTERMARKSYMBOL_20
 70
     0
 10
0.0
 20
0.0
 30
0.0
  3
SW_CENTERMARKSYMBOL_20
  1

  0
LINE
  5
6809
330
6807
100
AcDbEntity
  8
0
  6
Continuous
 62
     0
370
     0
100
AcDbLine
 10
0.0
 20
0.0
 30
0.0
 11
0.0
 21
0.0999999999999995
 31
0.0
  0
LINE
  5
680A
330
6807
100
AcDbEntity
  8
0
  6
Continuous
 62
     0
370
     0
100
AcDbLine
 10
0.0
 20
0.0
 30
0.0
 11
-0.0999999999999995
 21
0.0
 31
0.0
  0
LINE
  5
680B
330
6807
100
AcDbEntity
  8
0
  6
Continuous
 62
     0
370
     0
100
AcDbLine
 10
0.0
 20
0.0
 30
0.0
 11
0.0
 21
-0.0999999999999995
 31
0.0
  0
LINE
  5
680C
330
6807
100
AcDbEntity
  8
0
  6
Continuous
 62
     0
370
     0
100
AcDbLine
 10
0.0
 20
0.0
 30
0.0
 11
0.0999999999999995
 21
0.0
 31
0.0
  0
LINE
  5
680D
330
6807
100
AcDbEntity
  8
0
  6
Continuous
 62
     0
370
     0
100
AcDbLine
 10
0.0
 20
0.0999999999999995
 30
0.0
 11
0.0
 21
0.1747499999999995
 31
0.0
  0
LINE
  5
680E
330
6807
100
AcDbEntity
  8
0
  6
Continuous
 62
     0
370
     0
100
AcDbLine
 10
-0.0999999999999995
 20
0.0
 30
0.0
 11
-0.1747499999999995
 21
0.0
 31
0.0
  0
LINE
  5
680F
330
6807
100
AcDbEntity
  8
0
  6
Continuous
 62
     0
370
     0
100
AcDbLine
 10
0.0
 20
-0.0999999999999995
 30
0.0
 11
0.0
 21
-0.1747499999999995
 31
0.0
  0
LINE
  5
6810
330
6807
100
AcDbEntity
  8
0
  6
Continuous
 62
     0
370
     0
100
AcDbLine
 10
0.0999999999999995
 20
0.0
 30
0.0
 11
0.1747499999999995
 21
0.0
 31
0.0
  0
ENDBLK
  5
6811
330
6807
100
AcDbEntity
  8
0
100
AcDbBlockEnd
  0
BLOCK
  5
6813
330
6812
100
AcDbEntity
  8
0
100
AcDbBlockBegin
  2
SW_CENTERMARKSYMBOL_21
 70
     0
 10
0.0
 20
0.0
 30
0.0
  3
SW_CENTERMARKSYMBOL_21
  1

  0
LINE
  5
6814
330
6812
100
AcDbEntity
  8
0
  6
Continuous
 62
     0
370
     0
100
AcDbLine
 10
0.0
 20
0.0
 30
0.0
 11
0.0
 21
0.0999999999999995
 31
0.0
  0
LINE
  5
6815
330
6812
100
AcDbEntity
  8
0
  6
Continuous
 62
     0
370
     0
100
AcDbLine
 10
0.0
 20
0.0
 30
0.0
 11
-0.0999999999999995
 21
0.0
 31
0.0
  0
LINE
  5
6816
330
6812
100
AcDbEntity
  8
0
  6
Continuous
 62
     0
370
     0
100
AcDbLine
 10
0.0
 20
0.0
 30
0.0
 11
0.0
 21
-0.0999999999999995
 31
0.0
  0
LINE
  5
6817
330
6812
100
AcDbEntity
  8
0
  6
Continuous
 62
     0
370
     0
100
AcDbLine
 10
0.0
 20
0.0
 30
0.0
 11
0.0999999999999995
 21
0.0
 31
0.0
  0
LINE
  5
6818
330
6812
100
AcDbEntity
  8
0
  6
Continuous
 62
     0
370
     0
100
AcDbLine
 10
0.0
 20
0.0999999999999995
 30
0.0
 11
0.0
 21
0.1747499999999995
 31
0.0
  0
LINE
  5
6819
330
6812
100
AcDbEntity
  8
0
  6
Continuous
 62
     0
370
     0
100
AcDbLine
 10
-0.0999999999999995
 20
0.0
 30
0.0
 11
-0.1747499999999995
 21
0.0
 31
0.0
  0
LINE
  5
681A
330
6812
100
AcDbEntity
  8
0
  6
Continuous
 62
     0
370
     0
100
AcDbLine
 10
0.0
 20
-0.0999999999999995
 30
0.0
 11
0.0
 21
-0.1747499999999995
 31
0.0
  0
LINE
  5
681B
330
6812
100
AcDbEntity
  8
0
  6
Continuous
 62
     0
370
     0
100
AcDbLine
 10
0.0999999999999995
 20
0.0
 30
0.0
 11
0.1747499999999995
 21
0.0
 31
0.0
  0
ENDBLK
  5
681C
330
6812
100
AcDbEntity
  8
0
100
AcDbBlockEnd
  0
BLOCK
  5
681E
330
681D
100
AcDbEntity
  8
0
100
AcDbBlockBegin
  2
SW_CENTERMARKSYMBOL_22
 70
     0
 10
0.0
 20
0.0
 30
0.0
  3
SW_CENTERMARKSYMBOL_22
  1

  0
LINE
  5
681F
330
681D
100
AcDbEntity
  8
0
  6
Continuous
 62
     0
370
     0
100
AcDbLine
 10
0.0
 20
0.0
 30
0.0
 11
0.0
 21
0.1000000000000038
 31
0.0
  0
LINE
  5
6820
330
681D
100
AcDbEntity
  8
0
  6
Continuous
 62
     0
370
     0
100
AcDbLine
 10
0.0
 20
0.0
 30
0.0
 11
-0.0999999999999995
 21
0.0
 31
0.0
  0
LINE
  5
6821
330
681D
100
AcDbEntity
  8
0
  6
Continuous
 62
     0
370
     0
100
AcDbLine
 10
0.0
 20
0.0
 30
0.0
 11
0.0
 21
-0.0999999999999995
 31
0.0
  0
LINE
  5
6822
330
681D
100
AcDbEntity
  8
0
  6
Continuous
 62
     0
370
     0
100
AcDbLine
 10
0.0
 20
0.0
 30
0.0
 11
0.0999999999999995
 21
0.0
 31
0.0
  0
LINE
  5
6823
330
681D
100
AcDbEntity
  8
0
  6
Continuous
 62
     0
370
     0
100
AcDbLine
 10
0.0
 20
0.1000000000000038
 30
0.0
 11
0.0
 21
0.1747500000000039
 31
0.0
  0
LINE
  5
6824
330
681D
100
AcDbEntity
  8
0
  6
Continuous
 62
     0
370
     0
100
AcDbLine
 10
-0.0999999999999995
 20
0.0
 30
0.0
 11
-0.1747499999999995
 21
0.0
 31
0.0
  0
LINE
  5
6825
330
681D
100
AcDbEntity
  8
0
  6
Continuous
 62
     0
370
     0
100
AcDbLine
 10
0.0
 20
-0.0999999999999995
 30
0.0
 11
0.0
 21
-0.1747499999999995
 31
0.0
  0
LINE
  5
6826
330
681D
100
AcDbEntity
  8
0
  6
Continuous
 62
     0
370
     0
100
AcDbLine
 10
0.0999999999999995
 20
0.0
 30
0.0
 11
0.1747499999999995
 21
0.0
 31
0.0
  0
ENDBLK
  5
6827
330
681D
100
AcDbEntity
  8
0
100
AcDbBlockEnd
  0
BLOCK
  5
6829
330
6828
100
AcDbEntity
  8
0
100
AcDbBlockBegin
  2
SW_CENTERMARKSYMBOL_23
 70
     0
 10
0.0
 20
0.0
 30
0.0
  3
SW_CENTERMARKSYMBOL_23
  1

  0
LINE
  5
682A
330
6828
100
AcDbEntity
  8
0
  6
Continuous
 62
     0
370
     0
100
AcDbLine
 10
0.0
 20
0.0
 30
0.0
 11
0.0
 21
0.0999999999999995
 31
0.0
  0
LINE
  5
682B
330
6828
100
AcDbEntity
  8
0
  6
Continuous
 62
     0
370
     0
100
AcDbLine
 10
0.0
 20
0.0
 30
0.0
 11
-0.0999999999999995
 21
0.0
 31
0.0
  0
LINE
  5
682C
330
6828
100
AcDbEntity
  8
0
  6
Continuous
 62
     0
370
     0
100
AcDbLine
 10
0.0
 20
0.0
 30
0.0
 11
0.0
 21
-0.0999999999999995
 31
0.0
  0
LINE
  5
682D
330
6828
100
AcDbEntity
  8
0
  6
Continuous
 62
     0
370
     0
100
AcDbLine
 10
0.0
 20
0.0
 30
0.0
 11
0.0999999999999995
 21
0.0
 31
0.0
  0
LINE
  5
682E
330
6828
100
AcDbEntity
  8
0
  6
Continuous
 62
     0
370
     0
100
AcDbLine
 10
0.0
 20
0.0999999999999995
 30
0.0
 11
0.0
 21
0.1747499999999995
 31
0.0
  0
LINE
  5
682F
330
6828
100
AcDbEntity
  8
0
  6
Continuous
 62
     0
370
     0
100
AcDbLine
 10
-0.0999999999999995
 20
0.0
 30
0.0
 11
-0.1747499999999995
 21
0.0
 31
0.0
  0
LINE
  5
6830
330
6828
100
AcDbEntity
  8
0
  6
Continuous
 62
     0
370
     0
100
AcDbLine
 10
0.0
 20
-0.0999999999999995
 30
0.0
 11
0.0
 21
-0.1747499999999995
 31
0.0
  0
LINE
  5
6831
330
6828
100
AcDbEntity
  8
0
  6
Continuous
 62
     0
370
     0
100
AcDbLine
 10
0.0999999999999995
 20
0.0
 30
0.0
 11
0.1747499999999995
 21
0.0
 31
0.0
  0
ENDBLK
  5
6832
330
6828
100
AcDbEntity
  8
0
100
AcDbBlockEnd
  0
BLOCK
  5
6834
330
6833
100
AcDbEntity
  8
0
100
AcDbBlockBegin
  2
SW_CENTERMARKSYMBOL_24
 70
     0
 10
0.0
 20
0.0
 30
0.0
  3
SW_CENTERMARKSYMBOL_24
  1

  0
LINE
  5
6835
330
6833
100
AcDbEntity
  8
0
  6
Continuous
 62
     0
370
     0
100
AcDbLine
 10
0.0
 20
0.0
 30
0.0
 11
0.0
 21
0.0999999999999995
 31
0.0
  0
LINE
  5
6836
330
6833
100
AcDbEntity
  8
0
  6
Continuous
 62
     0
370
     0
100
AcDbLine
 10
0.0
 20
0.0
 30
0.0
 11
-0.0999999999999995
 21
0.0
 31
0.0
  0
LINE
  5
6837
330
6833
100
AcDbEntity
  8
0
  6
Continuous
 62
     0
370
     0
100
AcDbLine
 10
0.0
 20
0.0
 30
0.0
 11
0.0
 21
-0.0999999999999995
 31
0.0
  0
LINE
  5
6838
330
6833
100
AcDbEntity
  8
0
  6
Continuous
 62
     0
370
     0
100
AcDbLine
 10
0.0
 20
0.0
 30
0.0
 11
0.0999999999999995
 21
0.0
 31
0.0
  0
LINE
  5
6839
330
6833
100
AcDbEntity
  8
0
  6
Continuous
 62
     0
370
     0
100
AcDbLine
 10
0.0
 20
0.0999999999999995
 30
0.0
 11
0.0
 21
0.1747499999999995
 31
0.0
  0
LINE
  5
683A
330
6833
100
AcDbEntity
  8
0
  6
Continuous
 62
     0
370
     0
100
AcDbLine
 10
-0.0999999999999995
 20
0.0
 30
0.0
 11
-0.1747499999999995
 21
0.0
 31
0.0
  0
LINE
  5
683B
330
6833
100
AcDbEntity
  8
0
  6
Continuous
 62
     0
370
     0
100
AcDbLine
 10
0.0
 20
-0.0999999999999995
 30
0.0
 11
0.0
 21
-0.1747499999999995
 31
0.0
  0
LINE
  5
683C
330
6833
100
AcDbEntity
  8
0
  6
Continuous
 62
     0
370
     0
100
AcDbLine
 10
0.0999999999999995
 20
0.0
 30
0.0
 11
0.1747499999999995
 21
0.0
 31
0.0
  0
ENDBLK
  5
683D
330
6833
100
AcDbEntity
  8
0
100
AcDbBlockEnd
  0
BLOCK
  5
6847
330
6846
100
AcDbEntity
  8
0
100
AcDbBlockBegin
  2
SW_CENTERMARKSYMBOL_25
 70
     0
 10
0.0
 20
0.0
 30
0.0
  3
SW_CENTERMARKSYMBOL_25
  1

  0
LINE
  5
6848
330
6846
100
AcDbEntity
  8
0
  6
Continuous
 62
     0
370
     0
100
AcDbLine
 10
0.0
 20
0.0
 30
0.0
 11
0.0
 21
0.0999999999999995
 31
0.0
  0
LINE
  5
6849
330
6846
100
AcDbEntity
  8
0
  6
Continuous
 62
     0
370
     0
100
AcDbLine
 10
0.0
 20
0.0
 30
0.0
 11
-0.0999999999999995
 21
0.0
 31
0.0
  0
LINE
  5
684A
330
6846
100
AcDbEntity
  8
0
  6
Continuous
 62
     0
370
     0
100
AcDbLine
 10
0.0
 20
0.0
 30
0.0
 11
0.0
 21
-0.0999999999999995
 31
0.0
  0
LINE
  5
684B
330
6846
100
AcDbEntity
  8
0
  6
Continuous
 62
     0
370
     0
100
AcDbLine
 10
0.0
 20
0.0
 30
0.0
 11
0.0999999999999995
 21
0.0
 31
0.0
  0
LINE
  5
684C
330
6846
100
AcDbEntity
  8
0
  6
Continuous
 62
     0
370
     0
100
AcDbLine
 10
0.0
 20
0.0999999999999995
 30
0.0
 11
0.0
 21
0.1747499999999995
 31
0.0
  0
LINE
  5
684D
330
6846
100
AcDbEntity
  8
0
  6
Continuous
 62
     0
370
     0
100
AcDbLine
 10
-0.0999999999999995
 20
0.0
 30
0.0
 11
-0.1747499999999995
 21
0.0
 31
0.0
  0
LINE
  5
684E
330
6846
100
AcDbEntity
  8
0
  6
Continuous
 62
     0
370
     0
100
AcDbLine
 10
0.0
 20
-0.0999999999999995
 30
0.0
 11
0.0
 21
-0.1747499999999995
 31
0.0
  0
LINE
  5
684F
330
6846
100
AcDbEntity
  8
0
  6
Continuous
 62
     0
370
     0
100
AcDbLine
 10
0.0999999999999995
 20
0.0
 30
0.0
 11
0.1747499999999995
 21
0.0
 31
0.0
  0
ENDBLK
  5
6850
330
6846
100
AcDbEntity
  8
0
100
AcDbBlockEnd
  0
BLOCK
  5
6852
330
6851
100
AcDbEntity
  8
0
100
AcDbBlockBegin
  2
SW_CENTERMARKSYMBOL_26
 70
     0
 10
0.0
 20
0.0
 30
0.0
  3
SW_CENTERMARKSYMBOL_26
  1

  0
LINE
  5
6853
330
6851
100
AcDbEntity
  8
0
  6
Continuous
 62
     0
370
     0
100
AcDbLine
 10
0.0
 20
0.0
 30
0.0
 11
0.0
 21
0.0999999999999995
 31
0.0
  0
LINE
  5
6854
330
6851
100
AcDbEntity
  8
0
  6
Continuous
 62
     0
370
     0
100
AcDbLine
 10
0.0
 20
0.0
 30
0.0
 11
-0.0999999999999995
 21
0.0
 31
0.0
  0
LINE
  5
6855
330
6851
100
AcDbEntity
  8
0
  6
Continuous
 62
     0
370
     0
100
AcDbLine
 10
0.0
 20
0.0
 30
0.0
 11
0.0
 21
-0.0999999999999995
 31
0.0
  0
LINE
  5
6856
330
6851
100
AcDbEntity
  8
0
  6
Continuous
 62
     0
370
     0
100
AcDbLine
 10
0.0
 20
0.0
 30
0.0
 11
0.0999999999999995
 21
0.0
 31
0.0
  0
LINE
  5
6857
330
6851
100
AcDbEntity
  8
0
  6
Continuous
 62
     0
370
     0
100
AcDbLine
 10
0.0
 20
0.0999999999999995
 30
0.0
 11
0.0
 21
0.1747499999999995
 31
0.0
  0
LINE
  5
6858
330
6851
100
AcDbEntity
  8
0
  6
Continuous
 62
     0
370
     0
100
AcDbLine
 10
-0.0999999999999995
 20
0.0
 30
0.0
 11
-0.1747499999999995
 21
0.0
 31
0.0
  0
LINE
  5
6859
330
6851
100
AcDbEntity
  8
0
  6
Continuous
 62
     0
370
     0
100
AcDbLine
 10
0.0
 20
-0.0999999999999995
 30
0.0
 11
0.0
 21
-0.1747499999999995
 31
0.0
  0
LINE
  5
685A
330
6851
100
AcDbEntity
  8
0
  6
Continuous
 62
     0
370
     0
100
AcDbLine
 10
0.0999999999999995
 20
0.0
 30
0.0
 11
0.1747499999999995
 21
0.0
 31
0.0
  0
ENDBLK
  5
685B
330
6851
100
AcDbEntity
  8
0
100
AcDbBlockEnd
  0
BLOCK
  5
685D
330
685C
100
AcDbEntity
  8
0
100
AcDbBlockBegin
  2
SW_CENTERMARKSYMBOL_27
 70
     0
 10
0.0
 20
0.0
 30
0.0
  3
SW_CENTERMARKSYMBOL_27
  1

  0
LINE
  5
685E
330
685C
100
AcDbEntity
  8
0
  6
Continuous
 62
     0
370
     0
100
AcDbLine
 10
0.0
 20
0.0
 30
0.0
 11
0.0
 21
0.1000000000000038
 31
0.0
  0
LINE
  5
685F
330
685C
100
AcDbEntity
  8
0
  6
Continuous
 62
     0
370
     0
100
AcDbLine
 10
0.0
 20
0.0
 30
0.0
 11
-0.1000000000000082
 21
0.0
 31
0.0
  0
LINE
  5
6860
330
685C
100
AcDbEntity
  8
0
  6
Continuous
 62
     0
370
     0
100
AcDbLine
 10
0.0
 20
0.0
 30
0.0
 11
0.0
 21
-0.0999999999999995
 31
0.0
  0
LINE
  5
6861
330
685C
100
AcDbEntity
  8
0
  6
Continuous
 62
     0
370
     0
100
AcDbLine
 10
0.0
 20
0.0
 30
0.0
 11
0.0999999999999908
 21
0.0
 31
0.0
  0
LINE
  5
6862
330
685C
100
AcDbEntity
  8
0
  6
Continuous
 62
     0
370
     0
100
AcDbLine
 10
0.0
 20
0.1000000000000038
 30
0.0
 11
0.0
 21
0.1747500000000039
 31
0.0
  0
LINE
  5
6863
330
685C
100
AcDbEntity
  8
0
  6
Continuous
 62
     0
370
     0
100
AcDbLine
 10
-0.1000000000000082
 20
0.0
 30
0.0
 11
-0.1747499999999995
 21
0.0
 31
0.0
  0
LINE
  5
6864
330
685C
100
AcDbEntity
  8
0
  6
Continuous
 62
     0
370
     0
100
AcDbLine
 10
0.0
 20
-0.0999999999999995
 30
0.0
 11
0.0
 21
-0.1747499999999995
 31
0.0
  0
LINE
  5
6865
330
685C
100
AcDbEntity
  8
0
  6
Continuous
 62
     0
370
     0
100
AcDbLine
 10
0.0999999999999908
 20
0.0
 30
0.0
 11
0.1747499999999995
 21
0.0
 31
0.0
  0
ENDBLK
  5
6866
330
685C
100
AcDbEntity
  8
0
100
AcDbBlockEnd
  0
BLOCK
  5
6868
330
6867
100
AcDbEntity
  8
0
100
AcDbBlockBegin
  2
SW_CENTERMARKSYMBOL_28
 70
     0
 10
0.0
 20
0.0
 30
0.0
  3
SW_CENTERMARKSYMBOL_28
  1

  0
LINE
  5
6869
330
6867
100
AcDbEntity
  8
0
  6
Continuous
 62
     0
370
     0
100
AcDbLine
 10
0.0
 20
0.0
 30
0.0
 11
0.0
 21
0.0999999999999995
 31
0.0
  0
LINE
  5
686A
330
6867
100
AcDbEntity
  8
0
  6
Continuous
 62
     0
370
     0
100
AcDbLine
 10
0.0
 20
0.0
 30
0.0
 11
-0.0999999999999995
 21
0.0
 31
0.0
  0
LINE
  5
686B
330
6867
100
AcDbEntity
  8
0
  6
Continuous
 62
     0
370
     0
100
AcDbLine
 10
0.0
 20
0.0
 30
0.0
 11
0.0
 21
-0.0999999999999995
 31
0.0
  0
LINE
  5
686C
330
6867
100
AcDbEntity
  8
0
  6
Continuous
 62
     0
370
     0
100
AcDbLine
 10
0.0
 20
0.0
 30
0.0
 11
0.0999999999999995
 21
0.0
 31
0.0
  0
LINE
  5
686D
330
6867
100
AcDbEntity
  8
0
  6
Continuous
 62
     0
370
     0
100
AcDbLine
 10
0.0
 20
0.0999999999999995
 30
0.0
 11
0.0
 21
0.1747499999999995
 31
0.0
  0
LINE
  5
686E
330
6867
100
AcDbEntity
  8
0
  6
Continuous
 62
     0
370
     0
100
AcDbLine
 10
-0.0999999999999995
 20
0.0
 30
0.0
 11
-0.1747499999999995
 21
0.0
 31
0.0
  0
LINE
  5
686F
330
6867
100
AcDbEntity
  8
0
  6
Continuous
 62
     0
370
     0
100
AcDbLine
 10
0.0
 20
-0.0999999999999995
 30
0.0
 11
0.0
 21
-0.1747499999999995
 31
0.0
  0
LINE
  5
6870
330
6867
100
AcDbEntity
  8
0
  6
Continuous
 62
     0
370
     0
100
AcDbLine
 10
0.0999999999999995
 20
0.0
 30
0.0
 11
0.1747499999999995
 21
0.0
 31
0.0
  0
ENDBLK
  5
6871
330
6867
100
AcDbEntity
  8
0
100
AcDbBlockEnd
  0
BLOCK
  5
6873
330
6872
100
AcDbEntity
  8
0
100
AcDbBlockBegin
  2
SW_CENTERMARKSYMBOL_29
 70
     0
 10
0.0
 20
0.0
 30
0.0
  3
SW_CENTERMARKSYMBOL_29
  1

  0
LINE
  5
6874
330
6872
100
AcDbEntity
  8
0
  6
Continuous
 62
     0
370
     0
100
AcDbLine
 10
0.0
 20
0.0
 30
0.0
 11
0.0
 21
0.0999999999999995
 31
0.0
  0
LINE
  5
6875
330
6872
100
AcDbEntity
  8
0
  6
Continuous
 62
     0
370
     0
100
AcDbLine
 10
0.0
 20
0.0
 30
0.0
 11
-0.0999999999999995
 21
0.0
 31
0.0
  0
LINE
  5
6876
330
6872
100
AcDbEntity
  8
0
  6
Continuous
 62
     0
370
     0
100
AcDbLine
 10
0.0
 20
0.0
 30
0.0
 11
0.0
 21
-0.0999999999999995
 31
0.0
  0
LINE
  5
6877
330
6872
100
AcDbEntity
  8
0
  6
Continuous
 62
     0
370
     0
100
AcDbLine
 10
0.0
 20
0.0
 30
0.0
 11
0.0999999999999995
 21
0.0
 31
0.0
  0
LINE
  5
6878
330
6872
100
AcDbEntity
  8
0
  6
Continuous
 62
     0
370
     0
100
AcDbLine
 10
0.0
 20
0.0999999999999995
 30
0.0
 11
0.0
 21
0.1747499999999995
 31
0.0
  0
LINE
  5
6879
330
6872
100
AcDbEntity
  8
0
  6
Continuous
 62
     0
370
     0
100
AcDbLine
 10
-0.0999999999999995
 20
0.0
 30
0.0
 11
-0.1747499999999995
 21
0.0
 31
0.0
  0
LINE
  5
687A
330
6872
100
AcDbEntity
  8
0
  6
Continuous
 62
     0
370
     0
100
AcDbLine
 10
0.0
 20
-0.0999999999999995
 30
0.0
 11
0.0
 21
-0.1747499999999995
 31
0.0
  0
LINE
  5
687B
330
6872
100
AcDbEntity
  8
0
  6
Continuous
 62
     0
370
     0
100
AcDbLine
 10
0.0999999999999995
 20
0.0
 30
0.0
 11
0.1747499999999995
 21
0.0
 31
0.0
  0
ENDBLK
  5
687C
330
6872
100
AcDbEntity
  8
0
100
AcDbBlockEnd
  0
BLOCK
  5
687E
330
687D
100
AcDbEntity
  8
0
100
AcDbBlockBegin
  2
SW_CENTERMARKSYMBOL_30
 70
     0
 10
0.0
 20
0.0
 30
0.0
  3
SW_CENTERMARKSYMBOL_30
  1

  0
LINE
  5
687F
330
687D
100
AcDbEntity
  8
0
  6
Continuous
 62
     0
370
     0
100
AcDbLine
 10
0.0
 20
0.0
 30
0.0
 11
0.0
 21
0.0999999999999995
 31
0.0
  0
LINE
  5
6880
330
687D
100
AcDbEntity
  8
0
  6
Continuous
 62
     0
370
     0
100
AcDbLine
 10
0.0
 20
0.0
 30
0.0
 11
-0.0999999999999995
 21
0.0
 31
0.0
  0
LINE
  5
6881
330
687D
100
AcDbEntity
  8
0
  6
Continuous
 62
     0
370
     0
100
AcDbLine
 10
0.0
 20
0.0
 30
0.0
 11
0.0
 21
-0.0999999999999995
 31
0.0
  0
LINE
  5
6882
330
687D
100
AcDbEntity
  8
0
  6
Continuous
 62
     0
370
     0
100
AcDbLine
 10
0.0
 20
0.0
 30
0.0
 11
0.0999999999999995
 21
0.0
 31
0.0
  0
LINE
  5
6883
330
687D
100
AcDbEntity
  8
0
  6
Continuous
 62
     0
370
     0
100
AcDbLine
 10
0.0
 20
0.0999999999999995
 30
0.0
 11
0.0
 21
0.1747499999999995
 31
0.0
  0
LINE
  5
6884
330
687D
100
AcDbEntity
  8
0
  6
Continuous
 62
     0
370
     0
100
AcDbLine
 10
-0.0999999999999995
 20
0.0
 30
0.0
 11
-0.1747499999999995
 21
0.0
 31
0.0
  0
LINE
  5
6885
330
687D
100
AcDbEntity
  8
0
  6
Continuous
 62
     0
370
     0
100
AcDbLine
 10
0.0
 20
-0.0999999999999995
 30
0.0
 11
0.0
 21
-0.1747499999999995
 31
0.0
  0
LINE
  5
6886
330
687D
100
AcDbEntity
  8
0
  6
Continuous
 62
     0
370
     0
100
AcDbLine
 10
0.0999999999999995
 20
0.0
 30
0.0
 11
0.1747499999999995
 21
0.0
 31
0.0
  0
ENDBLK
  5
6887
330
687D
100
AcDbEntity
  8
0
100
AcDbBlockEnd
  0
BLOCK
  5
6889
330
6888
100
AcDbEntity
  8
0
100
AcDbBlockBegin
  2
SW_CENTERMARKSYMBOL_31
 70
     0
 10
0.0
 20
0.0
 30
0.0
  3
SW_CENTERMARKSYMBOL_31
  1

  0
LINE
  5
688A
330
6888
100
AcDbEntity
  8
0
  6
Continuous
 62
     0
370
     0
100
AcDbLine
 10
0.0
 20
0.0
 30
0.0
 11
0.0
 21
0.0999999999999995
 31
0.0
  0
LINE
  5
688B
330
6888
100
AcDbEntity
  8
0
  6
Continuous
 62
     0
370
     0
100
AcDbLine
 10
0.0
 20
0.0
 30
0.0
 11
-0.0999999999999995
 21
0.0
 31
0.0
  0
LINE
  5
688C
330
6888
100
AcDbEntity
  8
0
  6
Continuous
 62
     0
370
     0
100
AcDbLine
 10
0.0
 20
0.0
 30
0.0
 11
0.0
 21
-0.0999999999999995
 31
0.0
  0
LINE
  5
688D
330
6888
100
AcDbEntity
  8
0
  6
Continuous
 62
     0
370
     0
100
AcDbLine
 10
0.0
 20
0.0
 30
0.0
 11
0.0999999999999995
 21
0.0
 31
0.0
  0
LINE
  5
688E
330
6888
100
AcDbEntity
  8
0
  6
Continuous
 62
     0
370
     0
100
AcDbLine
 10
0.0
 20
0.0999999999999995
 30
0.0
 11
0.0
 21
0.1747499999999995
 31
0.0
  0
LINE
  5
688F
330
6888
100
AcDbEntity
  8
0
  6
Continuous
 62
     0
370
     0
100
AcDbLine
 10
-0.0999999999999995
 20
0.0
 30
0.0
 11
-0.1747499999999995
 21
0.0
 31
0.0
  0
LINE
  5
6890
330
6888
100
AcDbEntity
  8
0
  6
Continuous
 62
     0
370
     0
100
AcDbLine
 10
0.0
 20
-0.0999999999999995
 30
0.0
 11
0.0
 21
-0.1747499999999995
 31
0.0
  0
LINE
  5
6891
330
6888
100
AcDbEntity
  8
0
  6
Continuous
 62
     0
370
     0
100
AcDbLine
 10
0.0999999999999995
 20
0.0
 30
0.0
 11
0.1747499999999995
 21
0.0
 31
0.0
  0
ENDBLK
  5
6892
330
6888
100
AcDbEntity
  8
0
100
AcDbBlockEnd
  0
BLOCK
  5
6894
330
6893
100
AcDbEntity
  8
0
100
AcDbBlockBegin
  2
SW_CENTERMARKSYMBOL_32
 70
     0
 10
0.0
 20
0.0
 30
0.0
  3
SW_CENTERMARKSYMBOL_32
  1

  0
LINE
  5
6895
330
6893
100
AcDbEntity
  8
0
  6
Continuous
 62
     0
370
     0
100
AcDbLine
 10
0.0
 20
0.0
 30
0.0
 11
0.0
 21
0.0999999999999995
 31
0.0
  0
LINE
  5
6896
330
6893
100
AcDbEntity
  8
0
  6
Continuous
 62
     0
370
     0
100
AcDbLine
 10
0.0
 20
0.0
 30
0.0
 11
-0.1000000000000082
 21
0.0
 31
0.0
  0
LINE
  5
6897
330
6893
100
AcDbEntity
  8
0
  6
Continuous
 62
     0
370
     0
100
AcDbLine
 10
0.0
 20
0.0
 30
0.0
 11
0.0
 21
-0.1000000000000017
 31
0.0
  0
LINE
  5
6898
330
6893
100
AcDbEntity
  8
0
  6
Continuous
 62
     0
370
     0
100
AcDbLine
 10
0.0
 20
0.0
 30
0.0
 11
0.0999999999999908
 21
0.0
 31
0.0
  0
LINE
  5
6899
330
6893
100
AcDbEntity
  8
0
  6
Continuous
 62
     0
370
     0
100
AcDbLine
 10
0.0
 20
0.0999999999999995
 30
0.0
 11
0.0
 21
0.1747499999999995
 31
0.0
  0
LINE
  5
689A
330
6893
100
AcDbEntity
  8
0
  6
Continuous
 62
     0
370
     0
100
AcDbLine
 10
-0.1000000000000082
 20
0.0
 30
0.0
 11
-0.1747499999999995
 21
0.0
 31
0.0
  0
LINE
  5
689B
330
6893
100
AcDbEntity
  8
0
  6
Continuous
 62
     0
370
     0
100
AcDbLine
 10
0.0
 20
-0.1000000000000017
 30
0.0
 11
0.0
 21
-0.1747500000000017
 31
0.0
  0
LINE
  5
689C
330
6893
100
AcDbEntity
  8
0
  6
Continuous
 62
     0
370
     0
100
AcDbLine
 10
0.0999999999999908
 20
0.0
 30
0.0
 11
0.1747499999999995
 21
0.0
 31
0.0
  0
ENDBLK
  5
689D
330
6893
100
AcDbEntity
  8
0
100
AcDbBlockEnd
  0
BLOCK
  5
689F
330
689E
100
AcDbEntity
  8
0
100
AcDbBlockBegin
  2
SW_CENTERMARKSYMBOL_33
 70
     0
 10
0.0
 20
0.0
 30
0.0
  3
SW_CENTERMARKSYMBOL_33
  1

  0
LINE
  5
68A0
330
689E
100
AcDbEntity
  8
0
  6
Continuous
 62
     0
370
     0
100
AcDbLine
 10
0.0
 20
0.0
 30
0.0
 11
0.0
 21
0.0999999999999995
 31
0.0
  0
LINE
  5
68A1
330
689E
100
AcDbEntity
  8
0
  6
Continuous
 62
     0
370
     0
100
AcDbLine
 10
0.0
 20
0.0
 30
0.0
 11
-0.0999999999999908
 21
0.0
 31
0.0
  0
LINE
  5
68A2
330
689E
100
AcDbEntity
  8
0
  6
Continuous
 62
     0
370
     0
100
AcDbLine
 10
0.0
 20
0.0
 30
0.0
 11
0.0
 21
-0.0999999999999995
 31
0.0
  0
LINE
  5
68A3
330
689E
100
AcDbEntity
  8
0
  6
Continuous
 62
     0
370
     0
100
AcDbLine
 10
0.0
 20
0.0
 30
0.0
 11
0.1000000000000082
 21
0.0
 31
0.0
  0
LINE
  5
68A4
330
689E
100
AcDbEntity
  8
0
  6
Continuous
 62
     0
370
     0
100
AcDbLine
 10
0.0
 20
0.0999999999999995
 30
0.0
 11
0.0
 21
0.1747499999999995
 31
0.0
  0
LINE
  5
68A5
330
689E
100
AcDbEntity
  8
0
  6
Continuous
 62
     0
370
     0
100
AcDbLine
 10
-0.0999999999999908
 20
0.0
 30
0.0
 11
-0.1747499999999995
 21
0.0
 31
0.0
  0
LINE
  5
68A6
330
689E
100
AcDbEntity
  8
0
  6
Continuous
 62
     0
370
     0
100
AcDbLine
 10
0.0
 20
-0.0999999999999995
 30
0.0
 11
0.0
 21
-0.1747499999999995
 31
0.0
  0
LINE
  5
68A7
330
689E
100
AcDbEntity
  8
0
  6
Continuous
 62
     0
370
     0
100
AcDbLine
 10
0.1000000000000082
 20
0.0
 30
0.0
 11
0.1747499999999995
 21
0.0
 31
0.0
  0
ENDBLK
  5
68A8
330
689E
100
AcDbEntity
  8
0
100
AcDbBlockEnd
  0
BLOCK
  5
68AA
330
68A9
100
AcDbEntity
  8
0
100
AcDbBlockBegin
  2
SW_CENTERMARKSYMBOL_34
 70
     0
 10
0.0
 20
0.0
 30
0.0
  3
SW_CENTERMARKSYMBOL_34
  1

  0
LINE
  5
68AB
330
68A9
100
AcDbEntity
  8
0
  6
Continuous
 62
     0
370
     0
100
AcDbLine
 10
0.0
 20
0.0
 30
0.0
 11
0.0
 21
0.0999999999999995
 31
0.0
  0
LINE
  5
68AC
330
68A9
100
AcDbEntity
  8
0
  6
Continuous
 62
     0
370
     0
100
AcDbLine
 10
0.0
 20
0.0
 30
0.0
 11
-0.0999999999999995
 21
0.0
 31
0.0
  0
LINE
  5
68AD
330
68A9
100
AcDbEntity
  8
0
  6
Continuous
 62
     0
370
     0
100
AcDbLine
 10
0.0
 20
0.0
 30
0.0
 11
0.0
 21
-0.0999999999999995
 31
0.0
  0
LINE
  5
68AE
330
68A9
100
AcDbEntity
  8
0
  6
Continuous
 62
     0
370
     0
100
AcDbLine
 10
0.0
 20
0.0
 30
0.0
 11
0.0999999999999995
 21
0.0
 31
0.0
  0
LINE
  5
68AF
330
68A9
100
AcDbEntity
  8
0
  6
Continuous
 62
     0
370
     0
100
AcDbLine
 10
0.0
 20
0.0999999999999995
 30
0.0
 11
0.0
 21
0.1747500000000017
 31
0.0
  0
LINE
  5
68B0
330
68A9
100
AcDbEntity
  8
0
  6
Continuous
 62
     0
370
     0
100
AcDbLine
 10
-0.0999999999999995
 20
0.0
 30
0.0
 11
-0.1747499999999995
 21
0.0
 31
0.0
  0
LINE
  5
68B1
330
68A9
100
AcDbEntity
  8
0
  6
Continuous
 62
     0
370
     0
100
AcDbLine
 10
0.0
 20
-0.0999999999999995
 30
0.0
 11
0.0
 21
-0.1747499999999995
 31
0.0
  0
LINE
  5
68B2
330
68A9
100
AcDbEntity
  8
0
  6
Continuous
 62
     0
370
     0
100
AcDbLine
 10
0.0999999999999995
 20
0.0
 30
0.0
 11
0.1747499999999995
 21
0.0
 31
0.0
  0
ENDBLK
  5
68B3
330
68A9
100
AcDbEntity
  8
0
100
AcDbBlockEnd
  0
BLOCK
  5
68B5
330
68B4
100
AcDbEntity
  8
0
100
AcDbBlockBegin
  2
SW_CENTERMARKSYMBOL_35
 70
     0
 10
0.0
 20
0.0
 30
0.0
  3
SW_CENTERMARKSYMBOL_35
  1

  0
LINE
  5
68B6
330
68B4
100
AcDbEntity
  8
0
  6
Continuous
 62
     0
370
     0
100
AcDbLine
 10
0.0
 20
0.0
 30
0.0
 11
0.0
 21
0.0999999999999995
 31
0.0
  0
LINE
  5
68B7
330
68B4
100
AcDbEntity
  8
0
  6
Continuous
 62
     0
370
     0
100
AcDbLine
 10
0.0
 20
0.0
 30
0.0
 11
-0.0999999999999995
 21
0.0
 31
0.0
  0
LINE
  5
68B8
330
68B4
100
AcDbEntity
  8
0
  6
Continuous
 62
     0
370
     0
100
AcDbLine
 10
0.0
 20
0.0
 30
0.0
 11
0.0
 21
-0.0999999999999995
 31
0.0
  0
LINE
  5
68B9
330
68B4
100
AcDbEntity
  8
0
  6
Continuous
 62
     0
370
     0
100
AcDbLine
 10
0.0
 20
0.0
 30
0.0
 11
0.0999999999999995
 21
0.0
 31
0.0
  0
LINE
  5
68BA
330
68B4
100
AcDbEntity
  8
0
  6
Continuous
 62
     0
370
     0
100
AcDbLine
 10
0.0
 20
0.0999999999999995
 30
0.0
 11
0.0
 21
0.1747500000000017
 31
0.0
  0
LINE
  5
68BB
330
68B4
100
AcDbEntity
  8
0
  6
Continuous
 62
     0
370
     0
100
AcDbLine
 10
-0.0999999999999995
 20
0.0
 30
0.0
 11
-0.1747499999999995
 21
0.0
 31
0.0
  0
LINE
  5
68BC
330
68B4
100
AcDbEntity
  8
0
  6
Continuous
 62
     0
370
     0
100
AcDbLine
 10
0.0
 20
-0.0999999999999995
 30
0.0
 11
0.0
 21
-0.1747499999999995
 31
0.0
  0
LINE
  5
68BD
330
68B4
100
AcDbEntity
  8
0
  6
Continuous
 62
     0
370
     0
100
AcDbLine
 10
0.0999999999999995
 20
0.0
 30
0.0
 11
0.1747499999999995
 21
0.0
 31
0.0
  0
ENDBLK
  5
68BE
330
68B4
100
AcDbEntity
  8
0
100
AcDbBlockEnd
  0
BLOCK
  5
68C0
330
68BF
100
AcDbEntity
  8
0
100
AcDbBlockBegin
  2
SW_CENTERMARKSYMBOL_36
 70
     0
 10
0.0
 20
0.0
 30
0.0
  3
SW_CENTERMARKSYMBOL_36
  1

  0
LINE
  5
68C1
330
68BF
100
AcDbEntity
  8
0
  6
Continuous
 62
     0
370
     0
100
AcDbLine
 10
0.0
 20
0.0
 30
0.0
 11
0.0
 21
0.0999999999999995
 31
0.0
  0
LINE
  5
68C2
330
68BF
100
AcDbEntity
  8
0
  6
Continuous
 62
     0
370
     0
100
AcDbLine
 10
0.0
 20
0.0
 30
0.0
 11
-0.0999999999999995
 21
0.0
 31
0.0
  0
LINE
  5
68C3
330
68BF
100
AcDbEntity
  8
0
  6
Continuous
 62
     0
370
     0
100
AcDbLine
 10
0.0
 20
0.0
 30
0.0
 11
0.0
 21
-0.0999999999999995
 31
0.0
  0
LINE
  5
68C4
330
68BF
100
AcDbEntity
  8
0
  6
Continuous
 62
     0
370
     0
100
AcDbLine
 10
0.0
 20
0.0
 30
0.0
 11
0.0999999999999995
 21
0.0
 31
0.0
  0
LINE
  5
68C5
330
68BF
100
AcDbEntity
  8
0
  6
Continuous
 62
     0
370
     0
100
AcDbLine
 10
0.0
 20
0.0999999999999995
 30
0.0
 11
0.0
 21
0.1747499999999995
 31
0.0
  0
LINE
  5
68C6
330
68BF
100
AcDbEntity
  8
0
  6
Continuous
 62
     0
370
     0
100
AcDbLine
 10
-0.0999999999999995
 20
0.0
 30
0.0
 11
-0.1747499999999995
 21
0.0
 31
0.0
  0
LINE
  5
68C7
330
68BF
100
AcDbEntity
  8
0
  6
Continuous
 62
     0
370
     0
100
AcDbLine
 10
0.0
 20
-0.0999999999999995
 30
0.0
 11
0.0
 21
-0.1747499999999995
 31
0.0
  0
LINE
  5
68C8
330
68BF
100
AcDbEntity
  8
0
  6
Continuous
 62
     0
370
     0
100
AcDbLine
 10
0.0999999999999995
 20
0.0
 30
0.0
 11
0.1747499999999995
 21
0.0
 31
0.0
  0
ENDBLK
  5
68C9
330
68BF
100
AcDbEntity
  8
0
100
AcDbBlockEnd
  0
BLOCK
  5
68CB
330
68CA
100
AcDbEntity
  8
0
100
AcDbBlockBegin
  2
SW_CENTERMARKSYMBOL_37
 70
     0
 10
0.0
 20
0.0
 30
0.0
  3
SW_CENTERMARKSYMBOL_37
  1

  0
LINE
  5
68CC
330
68CA
100
AcDbEntity
  8
0
  6
Continuous
 62
     0
370
     0
100
AcDbLine
 10
0.0
 20
0.0
 30
0.0
 11
0.0
 21
0.0999999999999995
 31
0.0
  0
LINE
  5
68CD
330
68CA
100
AcDbEntity
  8
0
  6
Continuous
 62
     0
370
     0
100
AcDbLine
 10
0.0
 20
0.0
 30
0.0
 11
-0.0999999999999995
 21
0.0
 31
0.0
  0
LINE
  5
68CE
330
68CA
100
AcDbEntity
  8
0
  6
Continuous
 62
     0
370
     0
100
AcDbLine
 10
0.0
 20
0.0
 30
0.0
 11
0.0
 21
-0.1000000000000017
 31
0.0
  0
LINE
  5
68CF
330
68CA
100
AcDbEntity
  8
0
  6
Continuous
 62
     0
370
     0
100
AcDbLine
 10
0.0
 20
0.0
 30
0.0
 11
0.0999999999999995
 21
0.0
 31
0.0
  0
LINE
  5
68D0
330
68CA
100
AcDbEntity
  8
0
  6
Continuous
 62
     0
370
     0
100
AcDbLine
 10
0.0
 20
0.0999999999999995
 30
0.0
 11
0.0
 21
0.1747499999999995
 31
0.0
  0
LINE
  5
68D1
330
68CA
100
AcDbEntity
  8
0
  6
Continuous
 62
     0
370
     0
100
AcDbLine
 10
-0.0999999999999995
 20
0.0
 30
0.0
 11
-0.1747499999999995
 21
0.0
 31
0.0
  0
LINE
  5
68D2
330
68CA
100
AcDbEntity
  8
0
  6
Continuous
 62
     0
370
     0
100
AcDbLine
 10
0.0
 20
-0.1000000000000017
 30
0.0
 11
0.0
 21
-0.1747500000000017
 31
0.0
  0
LINE
  5
68D3
330
68CA
100
AcDbEntity
  8
0
  6
Continuous
 62
     0
370
     0
100
AcDbLine
 10
0.0999999999999995
 20
0.0
 30
0.0
 11
0.1747499999999995
 21
0.0
 31
0.0
  0
ENDBLK
  5
68D4
330
68CA
100
AcDbEntity
  8
0
100
AcDbBlockEnd
  0
ENDSEC
  0
SECTION
  2
ENTITIES
  0
CIRCLE
  5
B942
330
1F
100
AcDbEntity
  8
Laser
370
    15
100
AcDbCircle
 10
-86.55804674538233
 20
34.9891865936262
 30
0.0
 40
0.0747499999999982
  0
CIRCLE
  5
B943
330
1F
100
AcDbEntity
  8
Laser
100
AcDbCircle
 10
-86.55804674538233
 20
34.9891865936262
 30
0.0
 40
0.075
  0
LINE
  5
B944
330
1F
100
AcDbEntity
  8
Laser
100
AcDbLine
 10
-96.19304674538234
 20
27.2041865936262
 30
0.0
 11
-96.21204674538233
 21
27.2041865936262
 31
0.0
  0
LINE
  5
B945
330
1F
100
AcDbEntity
  8
Laser
100
AcDbLine
 10
-96.21179674538234
 20
35.00918659362621
 30
0.0
 11
-86.75304674538232
 21
35.00918659362621
 31
0.0
  0
LINE
  5
B946
330
1F
100
AcDbEntity
  8
Laser
100
AcDbLine
 10
-96.46179674538235
 20
34.75918659362621
 30
0.0
 11
-96.21179674538234
 21
35.00918659362621
 31
0.0
  0
LINE
  5
B947
330
1F
100
AcDbEntity
  8
Laser
100
AcDbLine
 10
-96.46179674538235
 20
34.75918659362621
 30
0.0
 11
-96.46179674538235
 21
27.4541865936262
 31
0.0
  0
LINE
  5
B948
330
1F
100
AcDbEntity
  8
Laser
100
AcDbLine
 10
-96.21179674538234
 20
27.2041865936262
 30
0.0
 11
-96.46179674538235
 21
27.4541865936262
 31
0.0
  0
LINE
  5
B949
330
1F
100
AcDbEntity
  8
Laser
100
AcDbLine
 10
-96.21179674538234
 20
27.2041865936262
 30
0.0
 11
-86.75304674538232
 21
27.2041865936262
 31
0.0
  0
LINE
  5
B94A
330
1F
100
AcDbEntity
  8
Laser
100
AcDbLine
 10
-86.50304674538231
 20
34.75918659362621
 30
0.0
 11
-86.50304674538231
 21
27.4541865936262
 31
0.0
  0
LINE
  5
B94B
330
1F
100
AcDbEntity
  8
Laser
100
AcDbLine
 10
-86.75304674538232
 20
27.2041865936262
 30
0.0
 11
-86.50304674538231
 21
27.4541865936262
 31
0.0
  0
LINE
  5
B94C
330
1F
100
AcDbEntity
  8
Laser
100
AcDbLine
 10
-86.75304674538232
 20
35.00918659362621
 30
0.0
 11
-86.50304674538231
 21
34.75918659362621
 31
0.0
  0
CIRCLE
  5
B94D
330
1F
100
AcDbEntity
  8
Laser
100
AcDbCircle
 10
-96.40804674538234
 20
34.9891865936262
 30
0.0
 40
0.075
  0
CIRCLE
  5
B94E
330
1F
100
AcDbEntity
  8
Laser
100
AcDbCircle
 10
-86.55804674538233
 20
34.9891865936262
 30
0.0
 40
0.075
  0
CIRCLE
  5
B94F
330
1F
100
AcDbEntity
  8
Laser
100
AcDbCircle
 10
-96.40804674538234
 20
27.2391865936262
 30
0.0
 40
0.075
  0
CIRCLE
  5
B950
330
1F
100
AcDbEntity
  8
Laser
100
AcDbCircle
 10
-86.55804674538233
 20
27.23918659362621
 30
0.0
 40
0.075
  0
MTEXT
  5
C871
330
1F
100
AcDbEntity
  8
Form
100
AcDbMText
 10
-92.1742049862507
 20
36.17996271504092
 30
0.0
 40
0.2
 41
2.137383708697426
 46
0.0
 71
     1
 72
     5
  1
AF-5600
 73
     1
 44
1.0
  0
VIEWPORT
  5
18B
330
182
100
AcDbEntity
 67
     1
  8
0
100
AcDbViewport
 10
9.99585251965558
 20
4.020172323379555
 30
0.0
 40
21.02553723732651
 41
9.53324738225476
 68
     1
 69
     1
 12
9.99585251965558
 22
4.020172323379555
 13
0.0
 23
0.0
 14
0.5
 24
0.5
 15
0.5
 25
0.5
 16
0.0
 26
0.0
 36
1.0
 17
0.0
 27
0.0
 37
0.0
 42
50.0
 43
0.0
 44
0.0
 45
9.53324738225476
 50
0.0
 51
0.0
 72
   100
 90
    32800
  1

281
     0
 71
     1
 74
     0
110
0.0
120
0.0
130
0.0
111
1.0
121
0.0
131
0.0
112
0.0
122
1.0
132
0.0
 79
     0
146
0.0
170
     0
 61
     5
348
1669
292
     1
282
     1
141
0.0
142
0.0
 63
   250
421
  3355443
  0
ENDSEC
  0
SECTION
  2
OBJECTS
  0
DICTIONARY
  5
C
330
0
100
AcDbDictionary
281
     1
  3
ACAD_COLOR
350
1674
  3
ACAD_GROUP
350
D
  3
ACAD_LAYOUT
350
1A
  3
ACAD_MATERIAL
350
164A
  3
ACAD_MLEADERSTYLE
350
1699
  3
ACAD_MLINESTYLE
350
17
  3
ACAD_PLOTSETTINGS
350
19
  3
ACAD_PLOTSTYLENAME
350
E
  3
ACAD_SCALELIST
350
1677
  3
ACAD_TABLESTYLE
350
1675
  3
ACAD_VISUALSTYLE
350
1663
  3
ACDB_RECOMPOSE_DATA
350
19C2
  3
AcDbVariableDictionary
350
157
  3
AcmDictionary
350
E3
  3
AMG
350
2B
  3
AMGSNAPSETTINGS
350
13B
  0
DICTIONARY
  5
3513
330
8
100
AcDbDictionary
280
     1
281
     1
  0
DICTIONARY
  5
120
330
2
100
AcDbDictionary
280
     1
281
     1
  3
ACAD_LAYERFILTERS
360
C73F
  3
ACAD_LAYERSTATES
360
126
  3
ACLYDICTIONARY
360
C73E
  0
DICTIONARY
  5
1745
330
10
100
AcDbDictionary
280
     1
281
     1
  3
ADSK_XREC_LAYER_RECONCILED
360
1746
  0
DICTIONARY
  5
172C
330
172B
100
AcDbDictionary
280
     1
281
     1
  3
ADSK_XREC_LAYER_RECONCILED
360
1747
  0
DICTIONARY
  5
9420
330
941F
100
AcDbDictionary
280
     1
281
     1
  0
DICTIONARY
  5
9422
330
9421
100
AcDbDictionary
280
     1
281
     1
  0
DICTIONARY
  5
153
330
1F
100
AcDbDictionary
280
     1
281
     1
  3
ACAD_INDEX
360
BBCC
  3
ACAD_SORTENTS
360
199E
  0
DICTIONARY
  5
1674
102
{ACAD_REACTORS
330
C
102
}
330
C
100
AcDbDictionary
281
     1
  0
DICTIONARY
  5
D
102
{ACAD_REACTORS
330
C
102
}
330
C
100
AcDbDictionary
281
     1
  0
DICTIONARY
  5
1A
102
{ACAD_REACTORS
330
C
102
}
330
C
100
AcDbDictionary
281
     1
  3
Layout1
350
183
  3
Model
350
22
  0
DICTIONARY
  5
164A
102
{ACAD_REACTORS
330
C
102
}
330
C
100
AcDbDictionary
281
     1
  3
ByBlock
350
1653
  3
ByLayer
350
164B
  3
Global
350
165B
  0
DICTIONARY
  5
1699
102
{ACAD_REACTORS
330
C
102
}
330
C
100
AcDbDictionary
281
     1
  3
Standard
350
169A
  0
DICTIONARY
  5
17
102
{ACAD_REACTORS
330
C
102
}
330
C
100
AcDbDictionary
281
     1
  3
Standard
350
18
  0
DICTIONARY
  5
19
102
{ACAD_REACTORS
330
C
102
}
330
C
100
AcDbDictionary
281
     1
  0
ACDBDICTIONARYWDFLT
  5
E
102
{ACAD_REACTORS
330
C
102
}
330
C
100
AcDbDictionary
281
     1
  3
Normal
350
F
100
AcDbDictionaryWithDefault
340
F
  0
DICTIONARY
  5
1677
102
{ACAD_REACTORS
330
C
102
}
330
C
100
AcDbDictionary
281
     1
  3
A0
350
1678
  3
A1
350
1679
  3
A2
350
167A
  3
A3
350
167B
  3
A4
350
167C
  3
A5
350
167D
  3
A6
350
167E
  3
A7
350
167F
  3
A8
350
1680
  3
A9
350
1681
  3
B0
350
1682
  3
B1
350
1683
  3
B2
350
1684
  3
B3
350
1685
  3
B4
350
1686
  3
B5
350
1687
  3
B6
350
1688
  3
B7
350
1689
  3
B8
350
168A
  3
B9
350
168B
  3
C0
350
168C
  3
C1
350
168D
  3
C2
350
168E
  3
C3
350
168F
  3
C4
350
1690
  3
C5
350
1691
  3
C6
350
1692
  3
C7
350
1693
  3
C8
350
1694
  3
C9
350
1695
  3
D0
350
1696
  3
D1
350
1697
  3
D2
350
1698
  0
DICTIONARY
  5
1675
102
{ACAD_REACTORS
330
C
102
}
330
C
100
AcDbDictionary
281
     1
  3
Standard
350
1676
  0
DICTIONARY
  5
1663
102
{ACAD_REACTORS
330
C
102
}
330
C
100
AcDbDictionary
281
     1
  3
2dWireframe
350
1669
  3
3D Hidden
350
166B
  3
3dWireframe
350
166A
  3
Basic
350
1668
  3
Brighten
350
166F
  3
ColorChange
350
1673
  3
Conceptual
350
166C
  3
Dim
350
166E
  3
Facepattern
350
1672
  3
Flat
350
1664
  3
FlatWithEdges
350
1665
  3
Gouraud
350
1666
  3
GouraudWithEdges
350
1667
  3
Linepattern
350
1671
  3
Realistic
350
166D
  3
Thicken
350
1670
  0
XRECORD
  5
19C2
102
{ACAD_REACTORS
330
C
102
}
330
C
100
AcDbXrecord
280
     1
 90
        1
330
1676
  0
DICTIONARY
  5
157
102
{ACAD_REACTORS
330
C
102
}
330
C
100
AcDbDictionary
281
     1
  3
CANNOSCALE
350
19C6
  3
CMLEADERSTYLE
350
19C4
  3
CTABLESTYLE
350
19C3
  3
DIMASSOC
350
15A
  3
HIDETEXT
350
159
  3
INDEXCTL
350
158
  3
LIGHTINGUNITS
350
19C7
  3
MSLTSCALE
350
19C5
  3
SORTENTS
350
3549
  0
DICTIONARY
  5
E3
102
{ACAD_REACTORS
330
C
102
}
330
C
100
AcDbDictionary
281
     1
  3
AcmBOMDATA
350
E4
  3
AcmStdDictionary
350
F2
  0
DICTIONARY
  5
2B
102
{ACAD_REACTORS
330
C
102
}
330
C
100
AcDbDictionary
281
     1
  3
AcMgSettings
350
2C
  0
DICTIONARY
  5
13B
102
{ACAD_REACTORS
330
C
102
}
330
C
100
AcDbDictionary
281
     1
  3
DIMENSION
350
140
  3
FEA
350
13F
  3
HATCH (1)
350
13C
  3
HATCH (2)
350
13D
  3
SIMPLE WELD
350
141
  3
SYMBOLS
350
13E
  0
DICTIONARY
  5
C73F
102
{ACAD_REACTORS
330
120
102
}
330
120
100
AcDbDictionary
281
     1
  3
working
350
C741
  0
DICTIONARY
  5
126
102
{ACAD_REACTORS
330
120
102
}
330
120
100
AcDbDictionary
281
     1
  0
DICTIONARY
  5
C73E
102
{ACAD_REACTORS
330
120
102
}
330
120
100
AcDbDictionary
281
     1
  3
*A1
350
C740
1001
ACAD
1000
<All
  0
XRECORD
  5
1746
102
{ACAD_REACTORS
330
1745
102
}
330
1745
100
AcDbXrecord
280
     1
290
     1
  0
XRECORD
  5
1747
102
{ACAD_REACTORS
330
172C
102
}
330
172C
100
AcDbXrecord
280
     1
290
     1
  0
DICTIONARY
  5
BBCC
102
{ACAD_REACTORS
330
153
102
}
330
153
100
AcDbDictionary
281
     1
  3
*A1
350
BBCD
  0
SORTENTSTABLE
  5
199E
102
{ACAD_REACTORS
330
153
102
}
330
153
100
AcDbSortentsTable
330
1F
331
B943
  5
B945
331
B945
  5
B947
331
B947
  5
B949
331
B949
  5
B94B
331
B94B
  5
B94D
331
B94D
  5
B94F
331
B94F
  5
B951
331
B942
  5
B944
331
B944
  5
B946
331
B946
  5
B948
331
B948
  5
B94A
331
B94A
  5
B94C
331
B94C
  5
B94E
331
B94E
  5
B950
331
B950
  5
B953
  0
LAYOUT
  5
183
102
{ACAD_XDICTIONARY
360
297C
102
}
102
{ACAD_REACTORS
330
1A
102
}
330
1A
100
AcDbPlotSettings
  1

  2
HP LaserJet 4 Plus
  4
Letter
  6

 40
7.143749713897705
 41
6.720414161682128
 42
7.14373779296875
 43
5.027069091796875
 44
215.8999938964843
 45
279.3999938964843
 46
0.0
 47
0.0
 48
0.0
 49
0.0
140
0.0
141
0.0
142
1.0
143
1.0
 70
   688
 72
     0
 73
     1
 74
     5
  7

 75
    16
147
1.0
 76
     0
 77
     2
 78
   300
148
0.0
149
0.0
100
AcDbLayout
  1
Layout1
 70
     1
 71
     1
 10
-0.1979161059762549
 20
-0.2812499887361301
 11
10.80208365372785
 21
8.218749770967976
 12
0.0
 22
0.0
 32
0.0
 14
1.000000000000000E+20
 24
1.000000000000000E+20
 34
1.000000000000000E+20
 15
-1.000000000000000E+20
 25
-1.000000000000000E+20
 35
-1.000000000000000E+20
146
0.0
 13
0.0
 23
0.0
 33
0.0
 16
1.0
 26
0.0
 36
0.0
 17
0.0
 27
1.0
 37
0.0
 76
     0
330
182
331
18B
  0
LAYOUT
  5
22
102
{ACAD_REACTORS
330
1A
102
}
330
1A
100
AcDbPlotSettings
  1

  2
KONICA MINOLTA bizhub C20 PS
  4
11x17
  6

 40
5.027082920074462
 41
5.408084392547606
 42
5.027099609375
 43
5.365753173828125
 44
279.3999938964844
 45
431.7999877929685
 46
0.0
 47
0.0
 48
-138.8483579267575
 49
23.18864989161332
140
-128.5902806875534
141
35.07202343667334
142
1.0
143
1.0
 70
 11936
 72
     0
 73
     1
 74
     4
  7

 75
     0
147
0.888351552884113
 76
     0
 77
     2
 78
   300
148
3526.748291339642
149
-588.9917072469784
100
AcDbLayout
  1
Model
 70
     1
 71
     0
 10
0.0
 20
0.0
 11
12.0
 21
9.0
 12
0.0
 22
0.0
 32
0.0
 14
0.0
 24
0.0
 34
0.0
 15
0.0
 25
0.0
 35
0.0
146
0.0
 13
0.0
 23
0.0
 33
0.0
 16
1.0
 26
0.0
 36
0.0
 17
0.0
 27
1.0
 37
0.0
 76
     0
330
1F
331
1648
1001
ACAD_PSEXT
1000
KONICA MINOLTA bizhub C20 PS
1000
KONICA MINOLTA bizhub C20 PS
1000
192.168.1.26
1000

1070
     0
  0
MATERIAL
  5
1653
102
{ACAD_XDICTIONARY
360
1654
102
}
102
{ACAD_REACTORS
330
164A
102
}
330
164A
100
AcDbMaterial
  1
ByBlock
 72
     0
 43
0.0208333333333333
 43
0.0
 43
0.0
 43
0.0
 43
0.0
 43
0.0208333333333333
 43
0.0
 43
0.0
 43
0.0
 43
0.0
 43
1.0
 43
0.0
 43
0.0
 43
0.0
 43
0.0
 43
1.0
 77
     0
 47
0.0208333333333333
 47
0.0
 47
0.0
 47
0.0
 47
0.0
 47
0.0208333333333333
 47
0.0
 47
0.0
 47
0.0
 47
0.0
 47
1.0
 47
0.0
 47
0.0
 47
0.0
 47
0.0
 47
1.0
171
     0
 49
0.0208333333333333
 49
0.0
 49
0.0
 49
0.0
 49
0.0
 49
0.0208333333333333
 49
0.0
 49
0.0
 49
0.0
 49
0.0
 49
1.0
 49
0.0
 49
0.0
 49
0.0
 49
0.0
 49
1.0
175
     0
142
0.0208333333333333
142
0.0
142
0.0
142
0.0
142
0.0
142
0.0208333333333333
142
0.0
142
0.0
142
0.0
142
0.0
142
1.0
142
0.0
142
0.0
142
0.0
142
0.0
142
1.0
179
     0
144
0.0208333333333333
144
0.0
144
0.0
144
0.0
144
0.0
144
0.0208333333333333
144
0.0
144
0.0
144
0.0
144
0.0
144
1.0
144
0.0
144
0.0
144
0.0
144
0.0
144
1.0
147
0.0208333333333333
147
0.0
147
0.0
147
0.0
147
0.0
147
0.0208333333333333
147
0.0
147
0.0
147
0.0
147
0.0
147
1.0
147
0.0
147
0.0
147
0.0
147
0.0
147
1.0
  0
MATERIAL
  5
164B
102
{ACAD_XDICTIONARY
360
164C
102
}
102
{ACAD_REACTORS
330
164A
102
}
330
164A
100
AcDbMaterial
  1
ByLayer
 72
     0
 43
0.0208333333333333
 43
0.0
 43
0.0
 43
0.0
 43
0.0
 43
0.0208333333333333
 43
0.0
 43
0.0
 43
0.0
 43
0.0
 43
1.0
 43
0.0
 43
0.0
 43
0.0
 43
0.0
 43
1.0
 77
     0
 47
0.0208333333333333
 47
0.0
 47
0.0
 47
0.0
 47
0.0
 47
0.0208333333333333
 47
0.0
 47
0.0
 47
0.0
 47
0.0
 47
1.0
 47
0.0
 47
0.0
 47
0.0
 47
0.0
 47
1.0
171
     0
 49
0.0208333333333333
 49
0.0
 49
0.0
 49
0.0
 49
0.0
 49
0.0208333333333333
 49
0.0
 49
0.0
 49
0.0
 49
0.0
 49
1.0
 49
0.0
 49
0.0
 49
0.0
 49
0.0
 49
1.0
175
     0
142
0.0208333333333333
142
0.0
142
0.0
142
0.0
142
0.0
142
0.0208333333333333
142
0.0
142
0.0
142
0.0
142
0.0
142
1.0
142
0.0
142
0.0
142
0.0
142
0.0
142
1.0
179
     0
144
0.0208333333333333
144
0.0
144
0.0
144
0.0
144
0.0
144
0.0208333333333333
144
0.0
144
0.0
144
0.0
144
0.0
144
1.0
144
0.0
144
0.0
144
0.0
144
0.0
144
1.0
147
0.0208333333333333
147
0.0
147
0.0
147
0.0
147
0.0
147
0.0208333333333333
147
0.0
147
0.0
147
0.0
147
0.0
147
1.0
147
0.0
147
0.0
147
0.0
147
0.0
147
1.0
  0
MATERIAL
  5
165B
102
{ACAD_XDICTIONARY
360
165C
102
}
102
{ACAD_REACTORS
330
164A
102
}
330
164A
100
AcDbMaterial
  1
Global
 72
     0
 43
0.0208333333333333
 43
0.0
 43
0.0
 43
0.0
 43
0.0
 43
0.0208333333333333
 43
0.0
 43
0.0
 43
0.0
 43
0.0
 43
1.0
 43
0.0
 43
0.0
 43
0.0
 43
0.0
 43
1.0
 77
     0
 47
0.0208333333333333
 47
0.0
 47
0.0
 47
0.0
 47
0.0
 47
0.0208333333333333
 47
0.0
 47
0.0
 47
0.0
 47
0.0
 47
1.0
 47
0.0
 47
0.0
 47
0.0
 47
0.0
 47
1.0
171
     0
 49
0.0208333333333333
 49
0.0
 49
0.0
 49
0.0
 49
0.0
 49
0.0208333333333333
 49
0.0
 49
0.0
 49
0.0
 49
0.0
 49
1.0
 49
0.0
 49
0.0
 49
0.0
 49
0.0
 49
1.0
175
     0
142
0.0208333333333333
142
0.0
142
0.0
142
0.0
142
0.0
142
0.0208333333333333
142
0.0
142
0.0
142
0.0
142
0.0
142
1.0
142
0.0
142
0.0
142
0.0
142
0.0
142
1.0
179
     0
144
0.0208333333333333
144
0.0
144
0.0
144
0.0
144
0.0
144
0.0208333333333333
144
0.0
144
0.0
144
0.0
144
0.0
144
1.0
144
0.0
144
0.0
144
0.0
144
0.0
144
1.0
147
0.0208333333333333
147
0.0
147
0.0
147
0.0
147
0.0
147
0.0208333333333333
147
0.0
147
0.0
147
0.0
147
0.0
147
1.0
147
0.0
147
0.0
147
0.0
147
0.0
147
1.0
  0
MLEADERSTYLE
  5
169A
102
{ACAD_REACTORS
330
1699
102
}
330
1699
100
AcDbMLeaderStyle
170
     2
171
     1
172
     0
 90
        2
 40
0.0
 41
0.0
173
     1
 91
-1056964608
340
14
 92
       -2
290
     1
 42
0.09
291
     1
 43
0.36
  3
Standard
 44
0.18
300

342
11
174
     1
178
     6
175
     1
176
     0
 93
-1056964608
 45
0.18
292
     0
297
     0
 46
0.18
 94
-1056964608
 47
1.0
 49
1.0
140
1.0
293
     1
141
0.0
294
     1
177
     0
142
1.0
295
     0
296
     0
143
0.125
1001
ACAD_MLEADERVER
1070
     2
  0
MLINESTYLE
  5
18
102
{ACAD_REACTORS
330
17
102
}
330
17
100
AcDbMlineStyle
  2
STANDARD
 70
     0
  3

 62
   256
 51
90.0
 52
90.0
 71
     2
 49
0.5
 62
   256
  6
BYLAYER
 49
-0.5
 62
   256
  6
BYLAYER
  0
ACDBPLACEHOLDER
  5
F
102
{ACAD_REACTORS
330
E
102
}
330
E
  0
SCALE
  5
1678
102
{ACAD_REACTORS
330
1677
102
}
330
1677
100
AcDbScale
 70
     0
300
1:1
140
1.0
141
1.0
290
     1
  0
SCALE
  5
1679
102
{ACAD_REACTORS
330
1677
102
}
330
1677
100
AcDbScale
 70
     0
300
1:2
140
1.0
141
2.0
290
     0
  0
SCALE
  5
167A
102
{ACAD_REACTORS
330
1677
102
}
330
1677
100
AcDbScale
 70
     0
300
1:4
140
1.0
141
4.0
290
     0
  0
SCALE
  5
167B
102
{ACAD_REACTORS
330
1677
102
}
330
1677
100
AcDbScale
 70
     0
300
1:5
140
1.0
141
5.0
290
     0
  0
SCALE
  5
167C
102
{ACAD_REACTORS
330
1677
102
}
330
1677
100
AcDbScale
 70
     0
300
1:8
140
1.0
141
8.0
290
     0
  0
SCALE
  5
167D
102
{ACAD_REACTORS
330
1677
102
}
330
1677
100
AcDbScale
 70
     0
300
1:10
140
1.0
141
10.0
290
     0
  0
SCALE
  5
167E
102
{ACAD_REACTORS
330
1677
102
}
330
1677
100
AcDbScale
 70
     0
300
1:16
140
1.0
141
16.0
290
     0
  0
SCALE
  5
167F
102
{ACAD_REACTORS
330
1677
102
}
330
1677
100
AcDbScale
 70
     0
300
1:20
140
1.0
141
20.0
290
     0
  0
SCALE
  5
1680
102
{ACAD_REACTORS
330
1677
102
}
330
1677
100
AcDbScale
 70
     0
300
1:30
140
1.0
141
30.0
290
     0
  0
SCALE
  5
1681
102
{ACAD_REACTORS
330
1677
102
}
330
1677
100
AcDbScale
 70
     0
300
1:40
140
1.0
141
40.0
290
     0
  0
SCALE
  5
1682
102
{ACAD_REACTORS
330
1677
102
}
330
1677
100
AcDbScale
 70
     0
300
1:50
140
1.0
141
50.0
290
     0
  0
SCALE
  5
1683
102
{ACAD_REACTORS
330
1677
102
}
330
1677
100
AcDbScale
 70
     0
300
1:100
140
1.0
141
100.0
290
     0
  0
SCALE
  5
1684
102
{ACAD_REACTORS
330
1677
102
}
330
1677
100
AcDbScale
 70
     0
300
2:1
140
2.0
141
1.0
290
     0
  0
SCALE
  5
1685
102
{ACAD_REACTORS
330
1677
102
}
330
1677
100
AcDbScale
 70
     0
300
4:1
140
4.0
141
1.0
290
     0
  0
SCALE
  5
1686
102
{ACAD_REACTORS
330
1677
102
}
330
1677
100
AcDbScale
 70
     0
300
8:1
140
8.0
141
1.0
290
     0
  0
SCALE
  5
1687
102
{ACAD_REACTORS
330
1677
102
}
330
1677
100
AcDbScale
 70
     0
300
10:1
140
10.0
141
1.0
290
     0
  0
SCALE
  5
1688
102
{ACAD_REACTORS
330
1677
102
}
330
1677
100
AcDbScale
 70
     0
300
100:1
140
100.0
141
1.0
290
     0
  0
SCALE
  5
1689
102
{ACAD_REACTORS
330
1677
102
}
330
1677
100
AcDbScale
 70
     0
300
1/128" = 1'-0"
140
0.0078125
141
12.0
290
     0
  0
SCALE
  5
168A
102
{ACAD_REACTORS
330
1677
102
}
330
1677
100
AcDbScale
 70
     0
300
1/64" = 1'-0"
140
0.015625
141
12.0
290
     0
  0
SCALE
  5
168B
102
{ACAD_REACTORS
330
1677
102
}
330
1677
100
AcDbScale
 70
     0
300
1/32" = 1'-0"
140
0.03125
141
12.0
290
     0
  0
SCALE
  5
168C
102
{ACAD_REACTORS
330
1677
102
}
330
1677
100
AcDbScale
 70
     0
300
1/16" = 1'-0"
140
0.0625
141
12.0
290
     0
  0
SCALE
  5
168D
102
{ACAD_REACTORS
330
1677
102
}
330
1677
100
AcDbScale
 70
     0
300
3/32" = 1'-0"
140
0.09375
141
12.0
290
     0
  0
SCALE
  5
168E
102
{ACAD_REACTORS
330
1677
102
}
330
1677
100
AcDbScale
 70
     0
300
1/8" = 1'-0"
140
0.125
141
12.0
290
     0
  0
SCALE
  5
168F
102
{ACAD_REACTORS
330
1677
102
}
330
1677
100
AcDbScale
 70
     0
300
3/16" = 1'-0"
140
0.1875
141
12.0
290
     0
  0
SCALE
  5
1690
102
{ACAD_REACTORS
330
1677
102
}
330
1677
100
AcDbScale
 70
     0
300
1/4" = 1'-0"
140
0.25
141
12.0
290
     0
  0
SCALE
  5
1691
102
{ACAD_REACTORS
330
1677
102
}
330
1677
100
AcDbScale
 70
     0
300
3/8" = 1'-0"
140
0.375
141
12.0
290
     0
  0
SCALE
  5
1692
102
{ACAD_REACTORS
330
1677
102
}
330
1677
100
AcDbScale
 70
     0
300
1/2" = 1'-0"
140
0.5
141
12.0
290
     0
  0
SCALE
  5
1693
102
{ACAD_REACTORS
330
1677
102
}
330
1677
100
AcDbScale
 70
     0
300
3/4" = 1'-0"
140
0.75
141
12.0
290
     0
  0
SCALE
  5
1694
102
{ACAD_REACTORS
330
1677
102
}
330
1677
100
AcDbScale
 70
     0
300
1" = 1'-0"
140
1.0
141
12.0
290
     0
  0
SCALE
  5
1695
102
{ACAD_REACTORS
330
1677
102
}
330
1677
100
AcDbScale
 70
     0
300
1-1/2" = 1'-0"
140
1.5
141
12.0
290
     0
  0
SCALE
  5
1696
102
{ACAD_REACTORS
330
1677
102
}
330
1677
100
AcDbScale
 70
     0
300
3" = 1'-0"
140
3.0
141
12.0
290
     0
  0
SCALE
  5
1697
102
{ACAD_REACTORS
330
1677
102
}
330
1677
100
AcDbScale
 70
     0
300
6" = 1'-0"
140
6.0
141
12.0
290
     0
  0
SCALE
  5
1698
102
{ACAD_REACTORS
330
1677
102
}
330
1677
100
AcDbScale
 70
     0
300
1'-0" = 1'-0"
140
12.0
141
12.0
290
     0
  0
TABLESTYLE
  5
1676
102
{ACAD_XDICTIONARY
360
19C0
102
}
102
{ACAD_REACTORS
330
1675
102
}
330
1675
100
AcDbTableStyle
  3
Standard
 70
     0
 71
     0
 40
0.06
 41
0.06
280
     0
281
     0
  7
Standard
140
0.18
170
     2
 62
     0
 63
     7
283
     0
 90
      512
 91
        0
  1

274
    -2
284
     1
 64
     0
275
    -2
285
     1
 65
     0
276
    -2
286
     1
 66
     0
277
    -2
287
     1
 67
     0
278
    -2
288
     1
 68
     0
279
    -2
289
     1
 69
     0
  7
Standard
140
0.25
170
     5
 62
     0
 63
     7
283
     0
 90
      512
 91
        0
  1

274
    -2
284
     1
 64
     0
275
    -2
285
     1
 65
     0
276
    -2
286
     1
 66
     0
277
    -2
287
     1
 67
     0
278
    -2
288
     1
 68
     0
279
    -2
289
     1
 69
     0
  7
Standard
140
0.18
170
     5
 62
     0
 63
     7
283
     0
 90
      512
 91
        0
  1

274
    -2
284
     1
 64
     0
275
    -2
285
     1
 65
     0
276
    -2
286
     1
 66
     0
277
    -2
287
     1
 67
     0
278
    -2
288
     1
 68
     0
279
    -2
289
     1
 69
     0
  0
VISUALSTYLE
  5
1669
102
{ACAD_REACTORS
330
1663
102
}
330
1663
100
AcDbVisualStyle
  2
2dWireframe
 70
     4
 71
     0
 72
     2
 73
     0
 90
        0
 40
-0.6
 41
-30.0
 62
     5
 63
     7
 74
     1
 91
        4
 64
     7
 65
   257
 75
     1
175
     1
 42
1.0
 92
        0
 66
   257
 43
1.0
 76
     1
 77
     6
 78
     2
 67
     7
 79
     5
170
     0
171
     0
290
     0
174
     0
 93
        1
 44
0.0
173
     0
291
     0
 45
0.0
  0
VISUALSTYLE
  5
166B
102
{ACAD_REACTORS
330
1663
102
}
330
1663
100
AcDbVisualStyle
  2
3D Hidden
 70
     6
 71
     1
 72
     2
 73
     2
 90
        0
 40
-0.6
 41
-30.0
 62
     5
 63
     7
 74
     2
 91
        2
 64
     7
 65
   257
 75
     2
175
     1
 42
40.0
 92
        0
 66
   257
 43
1.0
 76
     1
 77
     6
 78
     2
 67
     7
 79
     3
170
     0
171
     0
290
     0
174
     0
 93
        1
 44
0.0
173
     0
291
     0
 45
0.0
  0
VISUALSTYLE
  5
166A
102
{ACAD_REACTORS
330
1663
102
}
330
1663
100
AcDbVisualStyle
  2
3dWireframe
 70
     5
 71
     0
 72
     2
 73
     0
 90
        0
 40
-0.6
 41
-30.0
 62
     5
 63
     7
 74
     1
 91
        4
 64
     7
 65
   257
 75
     1
175
     1
 42
1.0
 92
        0
 66
   257
 43
1.0
 76
     1
 77
     6
 78
     2
 67
     7
 79
     5
170
     0
171
     0
290
     0
174
     0
 93
        1
 44
0.0
173
     0
291
     0
 45
0.0
  0
VISUALSTYLE
  5
1668
102
{ACAD_REACTORS
330
1663
102
}
330
1663
100
AcDbVisualStyle
  2
Basic
 70
     7
 71
     1
 72
     0
 73
     1
 90
        0
 40
-0.6
 41
-30.0
 62
     5
 63
     7
 74
     0
 91
        4
 64
     7
 65
   257
 75
     1
175
     1
 42
1.0
 92
        8
 66
     7
 43
1.0
 76
     1
 77
     6
 78
     2
 67
     7
 79
     5
170
     0
171
     0
290
     0
174
     0
 93
        1
 44
0.0
173
     0
291
     1
 45
0.0
  0
VISUALSTYLE
  5
166F
102
{ACAD_REACTORS
330
1663
102
}
330
1663
100
AcDbVisualStyle
  2
Brighten
 70
    12
 71
     2
 72
     2
 73
     0
 90
        0
 40
-0.6
 41
-30.0
 62
     5
 63
     7
 74
     1
 91
        4
 64
     7
 65
   257
 75
     1
175
     1
 42
1.0
 92
        8
 66
     7
 43
1.0
 76
     1
 77
     6
 78
     2
 67
     7
 79
     5
170
     0
171
     0
290
     0
174
     0
 93
        1
 44
50.0
173
     0
291
     1
 45
0.0
  0
VISUALSTYLE
  5
1673
102
{ACAD_REACTORS
330
1663
102
}
330
1663
100
AcDbVisualStyle
  2
ColorChange
 70
    16
 71
     2
 72
     2
 73
     3
 90
        0
 40
-0.6
 41
-30.0
 62
     5
 63
     8
 74
     1
 91
        4
 64
     7
 65
   257
 75
     1
175
     1
 42
1.0
 92
        8
 66
     8
 43
1.0
 76
     1
 77
     6
 78
     2
 67
     7
 79
     5
170
     0
171
     0
290
     0
174
     0
 93
        1
 44
0.0
173
     0
291
     1
 45
0.0
  0
VISUALSTYLE
  5
166C
102
{ACAD_REACTORS
330
1663
102
}
330
1663
100
AcDbVisualStyle
  2
Conceptual
 70
     9
 71
     3
 72
     2
 73
     0
 90
        0
 40
-0.6
 41
-30.0
 62
     5
 63
     7
 74
     2
 91
        2
 64
     7
 65
   257
 75
     1
175
     1
 42
40.0
 92
        8
 66
     7
 43
1.0
 76
     1
 77
     6
 78
     2
 67
     7
 79
     3
170
     0
171
     0
290
     0
174
     0
 93
        1
 44
0.0
173
     0
291
     0
 45
0.0
  0
VISUALSTYLE
  5
166E
102
{ACAD_REACTORS
330
1663
102
}
330
1663
100
AcDbVisualStyle
  2
Dim
 70
    11
 71
     2
 72
     2
 73
     0
 90
        0
 40
-0.6
 41
-30.0
 62
     5
 63
     7
 74
     1
 91
        4
 64
     7
 65
   257
 75
     1
175
     1
 42
1.0
 92
        8
 66
     7
 43
1.0
 76
     1
 77
     6
 78
     2
 67
     7
 79
     5
170
     0
171
     0
290
     0
174
     0
 93
        1
 44
-50.0
173
     0
291
     1
 45
0.0
  0
VISUALSTYLE
  5
1672
102
{ACAD_REACTORS
330
1663
102
}
330
1663
100
AcDbVisualStyle
  2
Facepattern
 70
    15
 71
     2
 72
     2
 73
     0
 90
        0
 40
-0.6
 41
-30.0
 62
     5
 63
     7
 74
     1
 91
        4
 64
     7
 65
   257
 75
     1
175
     1
 42
1.0
 92
        8
 66
     7
 43
1.0
 76
     1
 77
     6
 78
     2
 67
     7
 79
     5
170
     0
171
     0
290
     0
174
     0
 93
        1
 44
0.0
173
     0
291
     1
 45
0.0
  0
VISUALSTYLE
  5
1664
102
{ACAD_REACTORS
330
1663
102
}
330
1663
100
AcDbVisualStyle
  2
Flat
 70
     0
 71
     2
 72
     1
 73
     1
 90
        2
 40
-0.6
 41
30.0
 62
     5
 63
     7
 74
     0
 91
        4
 64
     7
 65
   257
 75
     1
175
     1
 42
1.0
 92
        8
 66
     7
 43
1.0
 76
     1
 77
     6
 78
     2
 67
     7
 79
     5
170
     0
171
     0
290
     0
174
     0
 93
       13
 44
0.0
173
     0
291
     1
 45
0.0
  0
VISUALSTYLE
  5
1665
102
{ACAD_REACTORS
330
1663
102
}
330
1663
100
AcDbVisualStyle
  2
FlatWithEdges
 70
     1
 71
     2
 72
     1
 73
     1
 90
        2
 40
-0.6
 41
30.0
 62
     5
 63
     7
 74
     1
 91
        4
 64
     7
 65
   257
 75
     1
175
     1
 42
1.0
 92
        0
 66
   257
 43
1.0
 76
     1
 77
     6
 78
     2
 67
     7
 79
     5
170
     0
171
     0
290
     0
174
     0
 93
       13
 44
0.0
173
     0
291
     1
 45
0.0
  0
VISUALSTYLE
  5
1666
102
{ACAD_REACTORS
330
1663
102
}
330
1663
100
AcDbVisualStyle
  2
Gouraud
 70
     2
 71
     2
 72
     2
 73
     1
 90
        2
 40
-0.6
 41
30.0
 62
     5
 63
     7
 74
     0
 91
        4
 64
     7
 65
   257
 75
     1
175
     1
 42
1.0
 92
        0
 66
     7
 43
1.0
 76
     1
 77
     6
 78
     2
 67
     7
 79
     5
170
     0
171
     0
290
     0
174
     0
 93
       13
 44
0.0
173
     0
291
     1
 45
0.0
  0
VISUALSTYLE
  5
1667
102
{ACAD_REACTORS
330
1663
102
}
330
1663
100
AcDbVisualStyle
  2
GouraudWithEdges
 70
     3
 71
     2
 72
     2
 73
     1
 90
        2
 40
-0.6
 41
30.0
 62
     5
 63
     7
 74
     1
 91
        4
 64
     7
 65
   257
 75
     1
175
     1
 42
1.0
 92
        0
 66
   257
 43
1.0
 76
     1
 77
     6
 78
     2
 67
     7
 79
     5
170
     0
171
     0
290
     0
174
     0
 93
       13
 44
0.0
173
     0
291
     1
 45
0.0
  0
VISUALSTYLE
  5
1671
102
{ACAD_REACTORS
330
1663
102
}
330
1663
100
AcDbVisualStyle
  2
Linepattern
 70
    14
 71
     2
 72
     2
 73
     0
 90
        0
 40
-0.6
 41
-30.0
 62
     5
 63
     7
 74
     1
 91
        4
 64
     7
 65
   257
 75
     7
175
     7
 42
1.0
 92
        8
 66
     7
 43
1.0
 76
     1
 77
     6
 78
     2
 67
     7
 79
     5
170
     0
171
     0
290
     0
174
     0
 93
        1
 44
0.0
173
     0
291
     1
 45
0.0
  0
VISUALSTYLE
  5
166D
102
{ACAD_REACTORS
330
1663
102
}
330
1663
100
AcDbVisualStyle
  2
Realistic
 70
     8
 71
     2
 72
     2
 73
     0
 90
        0
 40
-0.6
 41
-30.0
 62
     5
 63
     7
 74
     1
 91
        0
 64
     7
 65
   257
 75
     1
175
     1
 42
1.0
 92
        8
 66
     8
 43
1.0
 76
     1
 77
     6
 78
     2
 67
     7
 79
     5
170
     0
171
     0
290
     0
174
     0
 93
       13
 44
0.0
173
     0
291
     0
 45
0.0
  0
VISUALSTYLE
  5
1670
102
{ACAD_REACTORS
330
1663
102
}
330
1663
100
AcDbVisualStyle
  2
Thicken
 70
    13
 71
     2
 72
     2
 73
     0
 90
        0
 40
-0.6
 41
-30.0
 62
     5
 63
     7
 74
     1
 91
        4
 64
     7
 65
   257
 75
     1
175
     1
 42
1.0
 92
       12
 66
     7
 43
1.0
 76
     1
 77
     6
 78
     2
 67
     7
 79
     5
170
     0
171
     0
290
     0
174
     0
 93
        1
 44
0.0
173
     0
291
     1
 45
0.0
  0
DICTIONARYVAR
  5
19C6
102
{ACAD_REACTORS
330
157
102
}
330
157
100
DictionaryVariables
280
     0
  1
1:1
  0
DICTIONARYVAR
  5
19C4
102
{ACAD_REACTORS
330
157
102
}
330
157
100
DictionaryVariables
280
     0
  1
STANDARD
  0
DICTIONARYVAR
  5
19C3
102
{ACAD_REACTORS
330
157
102
}
330
157
100
DictionaryVariables
280
     0
  1
STANDARD
  0
DICTIONARYVAR
  5
15A
102
{ACAD_REACTORS
330
157
102
}
330
157
100
DictionaryVariables
280
     0
  1
2
  0
DICTIONARYVAR
  5
159
102
{ACAD_REACTORS
330
157
102
}
330
157
100
DictionaryVariables
280
     0
  1
1
  0
DICTIONARYVAR
  5
158
102
{ACAD_REACTORS
330
157
102
}
330
157
100
DictionaryVariables
280
     0
  1
1
  0
DICTIONARYVAR
  5
19C7
102
{ACAD_REACTORS
330
157
102
}
330
157
100
DictionaryVariables
280
     0
  1
0
  0
DICTIONARYVAR
  5
19C5
102
{ACAD_REACTORS
330
157
102
}
330
157
100
DictionaryVariables
280
     0
  1
0
  0
DICTIONARYVAR
  5
3549
102
{ACAD_REACTORS
330
157
102
}
330
157
100
DictionaryVariables
280
     0
  1
127
  0
ACAD_PROXY_OBJECT
  5
E4
102
{ACAD_REACTORS
330
E3
102
}
330
E3
100
AcDbProxyObject
 90
      499
 91
      551
 95
   917527
 70
     1
100
AcDbDictionary
281
     1
  3
*A1
350
E5
100
AcmDataDictionary
1001
ACAD
  0
DICTIONARY
  5
F2
102
{ACAD_REACTORS
330
E3
102
}
330
E3
100
AcDbDictionary
281
     1
  0
DICTIONARY
  5
2C
102
{ACAD_REACTORS
330
2B
102
}
330
2B
100
AcDbDictionary
281
     1
  0
ACAD_PROXY_OBJECT
  5
140
102
{ACAD_REACTORS
330
13B
102
}
330
13B
100
AcDbProxyObject
 90
      499
 91
      575
 95
   917527
 70
     1
100
AcAmgFilterDat
 70
    15
  1
DIMENSION,AMDT_*_DIM
  2
*
  3
*
  4
*
  5
*
290
     1
1001
ACAD
  0
ACAD_PROXY_OBJECT
  5
13F
102
{ACAD_REACTORS
330
13B
102
}
330
13B
100
AcDbProxyObject
 90
      499
 91
      575
 95
   917527
 70
     1
100
AcAmgFilterDat
 70
    15
  1
*
  2
AM_FEA-AM_*
  3
*
  4
*
  5
*
290
     1
1001
ACAD
  0
ACAD_PROXY_OBJECT
  5
13C
102
{ACAD_REACTORS
330
13B
102
}
330
13B
100
AcDbProxyObject
 90
      499
 91
      575
 95
   917527
 70
     1
100
AcAmgFilterDat
 70
    15
  1
HATCH
  2
*
  3
*
  4
*
  5
*
290
     1
1001
ACAD
  0
ACAD_PROXY_OBJECT
  5
13D
102
{ACAD_REACTORS
330
13B
102
}
330
13B
100
AcDbProxyObject
 90
      499
 91
      575
 95
   917527
 70
     1
100
AcAmgFilterDat
 70
    15
  1
LINE
  2
8,8N,*-8,*-8N,AM_8,AM_8N,*-AM_8,*-AM_8N
  3
*
  4
*
  5
INSERT,STDPART2D
290
     1
1001
ACAD
  0
ACAD_PROXY_OBJECT
  5
141
102
{ACAD_REACTORS
330
13B
102
}
330
13B
100
AcDbProxyObject
 90
      499
 91
      575
 95
   917527
 70
     1
100
AcAmgFilterDat
 70
    15
  1
ARC
  2
AM_5
  3
*
  4
2
  5
INSERT
290
     0
1001
ACAD
  0
ACAD_PROXY_OBJECT
  5
13E
102
{ACAD_REACTORS
330
13B
102
}
330
13B
100
AcDbProxyObject
 90
      499
 91
      575
 95
   917527
 70
     1
100
AcAmgFilterDat
 70
    15
  1
ACMFCFRAME,ACMDATUMTARGET,ACMDATUMID,ACMWELDSYM,ACMSURFSYM,ACMFEATID,ACMPARTREF,ACMBALLOON,AMDTEDGESYM,AMGSCREWCALCTABLE
  2
*
  3
*
  4
*
  5
*
290
     1
1001
ACAD
  0
XRECORD
  5
C741
102
{ACAD_REACTORS
330
C73F
102
}
330
C73F
100
AcDbXrecord
280
     1
  1
working
  1
amviews
  1
*
  1
*
 70
     0
  1
*
  1
*
1001
ACAD
1000
( NAME== "amviews" )
  0
XRECORD
  5
C740
102
{ACAD_REACTORS
330
C73E
102
}
330
C73E
100
AcDbXrecord
280
     1
  1
AcLyLayerFilter
 90
        1
300
working
301
( NAME== "amviews" )
  0
LAYER_INDEX
  5
BBCD
102
{ACAD_REACTORS
330
BBCC
102
}
330
BBCC
100
AcDbIndex
 40
2456484.43708544
100
AcDbLayerIndex
  8
0
360
BBCE
 90
        0
  8
Defpoints
360
BBCF
 90
        0
  8
cut
360
BBD0
 90
        0
  8
LIMIT
360
BBD1
 90
        0
  8
outline
360
BBD2
 90
        0
  8
3
360
BBD3
 90
        0
  8
7
360
BBD4
 90
        0
  8
AHRS
360
BBD5
 90
        0
  8
OPTREX LCD
360
BBD6
 90
        0
  8
SWITCH
360
BBD7
 90
        0
  8
1
360
BBD8
 90
        0
  8
DIM
360
BBD9
 90
        0
  8
SD Card
360
BBDA
 90
        0
  8
Bezel
360
BBDB
 90
        0
  8
6-32 Screw
360
BBDC
 90
        0
  8
CONTROL_PANEL
360
BBDD
 90
        0
  8
Panel Cut
360
BBDE
 90
        0
  8
Laser
360
C751
 90
       15
  8
Form
360
C752
 90
        1
  0
DICTIONARY
  5
297C
330
183
100
AcDbDictionary
280
     1
281
     1
  3
ADSK_XREC_LAYOUTTHUMBNAIL
360
297D
  0
DICTIONARY
  5
1654
330
1653
100
AcDbDictionary
280
     1
281
     1
  3
BUMPTILE
360
1656
  3
DIFFUSETILE
360
1655
  3
OPACITYTILE
360
1659
  3
REFLECTIONTILE
360
1658
  3
REFRACTIONTILE
360
165A
  3
SPECULARTILE
360
1657
  0
DICTIONARY
  5
164C
330
164B
100
AcDbDictionary
280
     1
281
     1
  3
BUMPTILE
360
164E
  3
DIFFUSETILE
360
164D
  3
OPACITYTILE
360
1651
  3
REFLECTIONTILE
360
1650
  3
REFRACTIONTILE
360
1652
  3
SPECULARTILE
360
164F
  0
DICTIONARY
  5
165C
330
165B
100
AcDbDictionary
280
     1
281
     1
  3
BUMPTILE
360
165E
  3
DIFFUSETILE
360
165D
  3
OPACITYTILE
360
1661
  3
REFLECTIONTILE
360
1660
  3
REFRACTIONTILE
360
1662
  3
SPECULARTILE
360
165F
  0
DICTIONARY
  5
19C0
330
1676
100
AcDbDictionary
280
     1
281
     1
  3
ACAD_ROUNDTRIP_2008_TABLESTYLE_CELLSTYLEMAP
360
C891
  0
ACAD_PROXY_OBJECT
  5
E5
102
{ACAD_REACTORS
330
E4
102
}
330
E4
100
AcDbProxyObject
 90
      499
 91
      552
 95
   917527
 70
     1
100
AcmDataEntry
100
AcmDataEntryBlock
1001
ACAD
  0
IDBUFFER
  5
BBCE
330
0
100
AcDbIdBuffer
  0
IDBUFFER
  5
BBCF
330
0
100
AcDbIdBuffer
  0
IDBUFFER
  5
BBD0
330
0
100
AcDbIdBuffer
  0
IDBUFFER
  5
BBD1
330
0
100
AcDbIdBuffer
  0
IDBUFFER
  5
BBD2
330
0
100
AcDbIdBuffer
  0
IDBUFFER
  5
BBD3
330
0
100
AcDbIdBuffer
  0
IDBUFFER
  5
BBD4
330
0
100
AcDbIdBuffer
  0
IDBUFFER
  5
BBD5
330
0
100
AcDbIdBuffer
  0
IDBUFFER
  5
BBD6
330
0
100
AcDbIdBuffer
  0
IDBUFFER
  5
BBD7
330
0
100
AcDbIdBuffer
  0
IDBUFFER
  5
BBD8
330
0
100
AcDbIdBuffer
  0
IDBUFFER
  5
BBD9
330
0
100
AcDbIdBuffer
  0
IDBUFFER
  5
BBDA
330
0
100
AcDbIdBuffer
  0
IDBUFFER
  5
BBDB
330
0
100
AcDbIdBuffer
  0
IDBUFFER
  5
BBDC
330
0
100
AcDbIdBuffer
  0
IDBUFFER
  5
BBDD
330
0
100
AcDbIdBuffer
  0
IDBUFFER
  5
BBDE
330
0
100
AcDbIdBuffer
  0
IDBUFFER
  5
C751
330
0
100
AcDbIdBuffer
330
B942
330
B943
330
B944
330
B945
330
B946
330
B947
330
B948
330
B949
330
B94A
330
B94B
330
B94C
330
B94D
330
B94E
330
B94F
330
B950
  0
IDBUFFER
  5
C752
330
0
100
AcDbIdBuffer
330
C871
  0
XRECORD
  5
297D
102
{ACAD_REACTORS
330
297C
102
}
330
297C
100
AcDbXrecord
280
     1
310
28000000B40000008B0000000100080000000000BC61000000000000000000000001000000000000FFFFFF0000000000FFFFFF000000000000000000000000000000000000000000000000000000000000000000330000006600000099000000CC000000FF00000000330000333300006633000099330000CC330000FF3300
310
0000660000336600006666000099660000CC660000FF66000000990000339900006699000099990000CC990000FF99000000CC000033CC000066CC000099CC0000CCCC0000FFCC000000FF000033FF000066FF000099FF0000CCFF0000FFFF000000003300330033006600330099003300CC003300FF003300003333003333
310
33006633330099333300CC333300FF33330000663300336633006666330099663300CC663300FF66330000993300339933006699330099993300CC993300FF99330000CC330033CC330066CC330099CC3300CCCC3300FFCC330000FF330033FF330066FF330099FF3300CCFF3300FFFF330000006600330066006600660099
310
006600CC006600FF00660000336600333366006633660099336600CC336600FF33660000666600336666006666660099666600CC666600FF66660000996600339966006699660099996600CC996600FF99660000CC660033CC660066CC660099CC6600CCCC6600FFCC660000FF660033FF660066FF660099FF6600CCFF6600
310
FFFF660000009900330099006600990099009900CC009900FF00990000339900333399006633990099339900CC339900FF33990000669900336699006666990099669900CC669900FF66990000999900339999006699990099999900CC999900FF99990000CC990033CC990066CC990099CC9900CCCC9900FFCC990000FF99
310
0033FF990066FF990099FF9900CCFF9900FFFF99000000CC003300CC006600CC009900CC00CC00CC00FF00CC000033CC003333CC006633CC009933CC00CC33CC00FF33CC000066CC003366CC006666CC009966CC00CC66CC00FF66CC000099CC003399CC006699CC009999CC00CC99CC00FF99CC0000CCCC0033CCCC0066CC
310
CC0099CCCC00CCCCCC00FFCCCC0000FFCC0033FFCC0066FFCC0099FFCC00CCFFCC00FFFFCC000000FF003300FF006600FF009900FF00CC00FF00FF00FF000033FF003333FF006633FF009933FF00CC33FF00FF33FF000066FF003366FF006666FF009966FF00CC66FF00FF66FF000099FF003399FF006699FF009999FF00CC
310
99FF00FF99FF0000CCFF0033CCFF0066CCFF0099CCFF00CCCCFF00FFCCFF0000FFFF0033FFFF0066FFFF0099FFFF00CCFFFF00FFFFFF00000000000D0D0D001A1A1A00282828003535350043434300505050005D5D5D006B6B6B00787878008686860093939300A1A1A100AEAEAE00BBBBBB00C9C9C900D6D6D600E4E4E400
310
F1F1F100FFFFFF0000000000000000000000000000000000000000000000000000000000000000000000000000000000E2E2E2E2E2E2E2E2E2E2E2E2E2E2E2E2E2E2E2E2E2E2E2E2E2E2E2E2E2E2E2E2E2E2E2E2E2E2E2E2E2E2E2E2E2E2E2E2E2E2E2E2E2E2E2E2E2E2E2E2E2E2E2E2E2E2E2E2E2E2E2E2E2E2E2E2E2E2E2
310
E2E2E2E2E2E2E2E2E2E2E2E2E2E2E2E2E2E2E2E2E2E2E2E2E2E2E2E2E2E2E2E2E2E2E2E2E2E2E2E2E2E2E2E2E2E2E2E2E2E2E2E2E2E2E2E2E2E2E2E2E2E2E2E2E2E2E2E2E2E2E2E2E2E2E2E2E2E2E2E2E2E2E2E2E2E2E2E2E2E2E2E2E2E2E2E2E2E2E2E2E2E2F5F5F5F5F5F5F5F5F5F5F5F5F5F5F5F5F5F5F5F5F5F5F5F5F5
310
F5F5F5F5F5F5F5F5F5F5F5F5F5F5F5F5F5F5F5F5F5F5F5F5F5F5F5F5F5F5F5F5F5F5F5F5F5F5F5F5F5F5F5F5F5F5F5F5F5F5F5F5F5F5F5F5F5F5F5F5F5F5F5F5F5F5F5F5F5F5F5F5F5F5F5F5F5F5F5F5F5F5F5F5F5F5F5F5F5F5F5F5F5F5F5F5F5F5F5F5F5F5F5F5F5F5F5F5F5F5F5F5F5F5F5F5F5F5F5F5F5F5F5F5F5F5F5
310
F5F5F5F5F5F5F5F5F5F5F5F5F5F5F5F5F5F5F5F5F5F5F5F5F5E2E2E2F5F5F5F5F5F5F5F5F5F5F5F5F5F5F5F5F5F5F5F5F5F5F5F5F5F5F5F5F5F5F5F5F5F5F5F5F5F5F5F5F5F5F5F5F5F5F5F5F5F5F5F5F5F5F5F5F5F5F5F5F5F5F5F5F5F5F5F5F5F5F5F5F5F5F5F5F5F5F5F5F5F5F5F5F5F5F5F5F5F5F5F5F5F5F5F5F5F5F5
310
F5F5F5F5F5F5F5F5F5F5F5F5F5F5F5F5F5F5F5F5F5F5F5F5F5F5F5F5F5F5F5F5F5F5F5F5F5F5F5F5F5F5F5F5F5F5F5F5F5F5F5F5F5F5F5F5F5F5F5F5F5F5F5F5F5F5F5F5F5F5F5F5F5F5F5F5F5F5E2E2E2F5F5F5F5F5F5F5F5F5F5F5F5F5F5F5F5F5F5F5F5F5F5F5F5F5F5F5F5F5F5F5F5F5F5F5F5F5F5F5F5F5F5F5F5F5F5
310
F5F5F5F5F5F5F5F5F5F5F5F5F5F5F5F5F5F5F5F5F5F5F5F5F5F5F5F5F5F5F5F5F5F5F5F5F5F5F5F5F5F5F5F5F5F5F5F5F5F5F5F5F5F5F5F5F5F5F5F5F5F5F5F5F5F5F5F5F5F5F5F5F5F5F5F5F5F5F5F5F5F5F5F5F5F5F5F5F5F5F5F5F5F5F5F5F5F5F5F5F5F5F5F5F5F5F5F5F5F5F5F5F5F5F5F5F5F5F5F5F5F5F5F5F5F5F5
310
F5F5F5F5E2E2E2F5F5F5F5F5F5F5F5F5F5F5F5F5F5F5F5F5F5F5F5F5F5F5F5F5F5F5F5F5F5F5F5F5F5F5F5F5F5F5F5F5F5F5F5F5F5F5F5F5F5F5F5F5F5F5F5F5F5F5F5F5F5F5F5F5F5F5F5F5F5F5F5F5F5F5F5F5F5F5F5F5F5F5F5F5F5F5F5F5F5F5F5F5F5F5F5F5F5F5F5F5F5F5F5F5F5F5F5F5F5F5F5F5F5F5F5F5F5F5F5
310
F5F5F5F5F5F5F5F5F5F5F5F5F5F5F5F5F5F5F5F5F5F5F5F5F5F5F5F5F5F5F5F5F5F5F5F5F5F5F5F5F5F5F5F5F5F5F5F5F5F5F5F5F5F5F5F5F5E2E2E2F5F5E2E2E2E2E2E2E2E2F5F5F5F5F5F5F5F5F5E2E2E2E2E2E2E2E2E2E2E2E2E2E2E2E2F5F5F5F5F5F5F5F5F5E2E2E2E2E2E2E2E2E2E2E2E2E2E2E2F5F5F5F5F5F5F5F5
310
F5E2E2E2E2E2E2E2E2E2E2E2E2E2E2E2E2F5F5F5F5F5F5F5F5E2E2E2E2E2E2E2E2E2E2E2E2E2E2E2E2F5F5F5F5F5F5F5F5F5E2E2E2E2E2E2E2E2E2E2E2E2E2E2E2F5F5F5F5F5F5F5F5F5E2E2E2E2E2E2E2E2E2E2E2E2E2E2E2E2F5F5F5F5F5F5F5F5F5E2E2E2E2E2E2E2E2F5F5F5E2E2E2F5F5E2F5F5F5F5F5F5F5F5F5F5F5
310
F5F5F5F5F5F5F5F5F5F5F5F5F5F5F5F5F5F5F5F5F5F5F5F5F5F5F5F5F5F5F5F5F5F5F5F5F5F5F5F5F5F5F5F5F5F5F5F5F5F5F5F5F5F5F5F5F5F5F5F5F5F5F5F5F5F5F5F5F5F5F5F5F5F5F5F5F5F5F5F5F5F5F5F5F5F5F5F5F5F5F5F5F5F5F5F5F5F5F5F5F5F5F5F5F5F5F5F5F5F5F5F5F5F5F5F5F5F5F5F5F5F5F5F5F5F5F5
310
F5F5F5F5F5F5F5F5F5F5F5F5F5F5F5F5F5F5F5F5F5F5F5F5F5F5F5F5F5F5F5F5E2F5F5F5E2E2E2F5F5E2F5F5F5F5F5F5F5F5F5F5F5F5F5F5F5F5F5F5F5F5F5F5F5F5F5F5F5F5F5F5F5F5F5F5F5F5F5F5F5F5F5F5F5F5F5F5F5F5F5F5F5F5F5F5F5F5F5F5F5F5F5F5F5F5F5F5F5F5F5F5F5F5F5F5F5F5F5F5F5F5F5F5F5F5F5
310
F5F5F5F5F5F5F5F5F5F5F5F5F5F5F5F5F5F5F5F5F5F5F5F5F5F5F5F5F5F5F5F5F5F5F5F5F5F5F5F5F5F5F5F5F5F5F5F5F5F5F5F5F5F5F5F5F5F5F5F5F5F5F5F5F5F5F5F5F5F5F5F5F5F5F5F5F5F5F5F5F5F5F5F5F5E2F5F5F5E2E2E2F5F5E2F5F5F5F5F5F5F5F5F5F5F5F5F5F5F5F5F5F5F5F5F5F5F5F5F5F5F5F5F5F5F5F5
310
F5F5F5F5F5F5F5F5F5F5F5F5F5F5F5F5F5F5F5F5F5F5F5F5F5F5F5F5F5F5F5F5F5F5F5F5F5F5F5F5F5F5F5F5F5F5F5F5F5F5F5F5F5F5F5F5F5F5F5F5F5F5F5F5F5F5F5F5F5F5F5F5F5F5F5F5F5F5F5F5F5F5F5F5F5F5F5F5F5F5F5F5F5F5F5F5F5F5F5F5F5F5F5F5F5F5F5F5F5F5F5F5F5F5F5F5F5F5F5F5F5F5F5F5F5F5F5
310
F5F5F5F5F5F5F5F5F5F5F5E2F5F5F5E2E2E2F5F5E2F5F5F5F5F5F5F5F5F5F5F5F5F5F5F5F5F5F5F5F5F5F5F5F5F5F5F5F5F5F5F5F5F5F5F5F5F5F5F5F5F5F5F5F5F5F5F5F5F5F5F5F5F5F5F5F5F5F5F5F5F5F5F5F5F5F5F5F5F5F5F5F5F5F5F5F5F5F5F5F5F5F5F5F5F5F5F5F5F5F5F5F5F5F5F5F5F5F5F5F5F5F5F5F5F5F5
310
F5F5F5F5F5F5F5F5F5F5F5F5F5F5F5F5F5F5F5F5F5F5F5F5F5F5F5F5F5F5F5F5F5F5F5F5F5F5F5F5F5F5F5F5F5F5F5F5F5F5F5F5F5F5F5F5F5F5F5F5F5F5F5F5E2F5F5F5E2E2E2F5F5E2F5F5F5F5F5F5F5F5F5F5F5F5F5F5F5F5F5F5F5F5F5F5F5F5F5F5F5F5F5F5F5F5F5F5F5F5F5F5F5F5F5F5F5F5F5F5F5F5F5F5F5F5F5
310
F5F5F5F5F5F5F5F5F5F5F5F5F5F5F5F5F5F5F5F5F5F5F5F5F5F5F5F5F5F5F5F5F5F5F5F5F5F5F5F5F5F5F5F5F5F5F5F5F5F5F5F5F5F5F5F5F5F5F5F5F5F5F5F5F5F5F5F5F5F5F5F5F5F5F5F5F5F5F5F5F5F5F5F5F5F5F5F5F5F5F5F5F5F5F5F5F5F5F5F5F5F5F5F5F5F5F5F5F5F5F5F5F5F5F5F5F5E2F5F5F5E2E2E2F5F5E2
310
F5F5F5F5F5F5F5F5F5F5F5F5F5F5F5F5F5F5F5F5F5F5F5F5F5F5F5F5F5F5F5F5F5F5F5F5F5F5F5F5F5F5F5F5F5F5F5F5F5F5F5F5F5F5F5F5F5F5F5F5F5F5F5F5F5F5F5F5F5F5F5F5F5F5F5F5F5F5F5F5F5F5F5F5F5F5F5F5F5F5F5F5F5F5F5F5F5F5F5F5F5F5F5F5F5F5F5F5F5F5F5F5F5F5F5F5F5F5F5F5F5F5F5F5F5F5F5
310
F5F5F5F5F5F5F5F5F5F5F5F5F5F5F5F5F5F5F5F5F5F5F5F5F5F5F5F5F5F5F5F5F5F5F5F5F5F5F5F5F5F5F5E2F5F5F5E2E2E2F5F5E2F5F5F5F5F5F5F5F5F5F5F5F5F5F5F5F5F5F5F5F5F5F5F5F5F5F5F5F5F5F5F5F5F5F5F5F5F5F5F5F5F5F5F5F5F5F5F5F5F5F5F5F5F5F5F5F5F5F5F5F5F5F5F5F5F5F5F5F5F5F5F5F5F5F5
310
F5F5F5F5F5F5F5F5F5F5F5F5F5F5F5F5F5F5F5F5F5F5F5F5F5F5F5F5F5F5F5F5F5F5F5F5F5F5F5F5F5F5F5F5F5F5F5F5F5F5F5F5F5F5F5F5F5F5F5F5F5F5F5F5F5F5F5F5F5F5F5F5F5F5F5F5F5F5F5F5F5F5F5F5F5F5F5F5F5F5F5F5F5F5F5F5E2F5F5F5E2E2E2F5F5E2F5F5F5F5F5F5F5F5F5F5F5F5F5F5F5F5F5F5F5F5F5
310
F5F5F5F5F5F5F5F5F5F5F5F5F5F5F5F5F5F5F5F5F5F5F5F5F5F5F5F5F5F5F5F5F5F5F5F5F5F5F5F5F5F5F5F5F5F5F5F5F5F5F5F5F5F5F5F5F5F5F5F5F5F5F5F5F5F5F5F5F5F5F5F5F5F5F5F5F5F5F5F5F5F5F5F5F5F5F5F5F5F5F5F5F5F5F5F5F5F5F5F5F5F5F5F5F5F5F5F5F5F5F5F5F5F5F5F5F5F5F5F5F5F5F5F5F5F5F5
310
F5F5F5F5F5F5F5F5F5F5F5F5F5F5F5F5F5F5F5F5F5F5E2F5F5F5E2E2E2F5F5F5F5F5F5F5F5F5F5F5F5F5F5F5F5F5F5F5F5F5F5F5F5F5F5F5F5F5F5F5F5F5F5F5F5F5F5F5F5F5F5F5F5F5F5F5F5F5F5F5F5F5F5F5F5F5F5F5F5F5F5F5F5F5F5F5F5F5F5F5F5F5F5F5F5F5F5F5F5F5F5F5F5F5F5F5F5F5F5F5F5F5F5F5F5F5F5
310
F5F5F5F5F5F5F5F5F5F5F5F5F5F5F5F5F5F5F5F5F5F5F5F5F5F5F5F5F5F5F5F5F5F5F5F5F5F5F5F5F5F5F5F5F5F5F5F5F5F5F5F5F5F5F5F5F5F5F5F5F5F5F5F5F5F5F5F5F5F5F5F5F5F5F5F5F5F5F5E2E2E2F5F5F5F5F5F5F5F5F5F5F5F5F5F5F5F5F5F5F5F5F5F5F5F5F5F5F5F5F5F5F5F5F5F5F5F5F5F5F5F5F5F5F5F5F5
310
F5F5F5F5F5F5F5F5F5F5F5F5F5F5F5F5F5F5F5F5F5F5F5F5F5F5F5F5F5F5F5F5F5F5F5F5F5F5F5F5F5F5F5F5F5F5F5F5F5F5F5F5F5F5F5F5F5F5F5F5F5F5F5F5F5F5F5F5F5F5F5F5F5F5F5F5F5F5F5F5F5F5F5F5F5F5F5F5F5F5F5F5F5F5F5F5F5F5F5F5F5F5F5F5F5F5F5F5F5F5F5F5F5F5F5F5F5F5F5F5F5F5F5F5F5F5F5
310
F5F5F5F5F5E2E2E2F5F5F5F5F5F5F5F5F5F5F5F5F5F5F5F5F5F5F5F5F5F5F5F5F5F5F5F5F5F5F5F5F5F5F5F5F5F5F5F5F5F5F5F5F5F5F5F5F5F5F5F5F5F5F5F5F5F5F5F5F5F5F5F5F5F5F5F5F5F5F5F5F5F5F5F5F5F5F5F5F5F5F5F5F5F5F5F5F5F5F5F5F5F5F5F5F5F5F5F5F5F5F5F5F5F5F5F5F5F5F5F5F5F5F5F5F5F5F5
310
F5F5F5F5F5F5F5F5F5F5F5F5F5F5F5F5F5F5F5F5F5F5F5F5F5F5F5F5F5F5F5F5F5F5F5F5F5F5F5F5F5F5F5F5F5F5F5F5F5F5F5F5F5F5F5F5F5F5E2E2E2F5F5F5F5F5F5F5F5F5F5F5F5F5F5F5F5F5F5F5F5F5F5F5F5F5F5F5F5F5F5F5F5F5F5F5F5F5F5F5F5F5F5F5F5F5F5F5F5F5F5F5F5F5F5F5F5F5F5F5F5F5F5F5F5F5F5
310
F5F5F5F5F5F5F5F5F5F5F5F5F5F5F5F5F5F5F5F5F5F5F5F5F5F5F5F5F5F5F5F5F5F5F5F5F5F5F5F5F5F5F5F5F5F5F5F5F5F5F5F5F5F5F5F5F5F5F5F5F5F5F5F5F5F5F5F5F5F5F5F5F5F5F5F5F5F5F5F5F5F5F5F5F5F5F5F5F5F5F5F5F5F5F5F5F5F5F5F5F5F5F5F5F5F5F5F5F5F5F5E2E2E2F5F5F5F5F5F5F5F5F5F5F5F5F5
310
F5F5F5F5F5F5F5F5F5F5F5F5F5F5F5F5F5F5F5F5F5F5F5F5F5F5F5F5F5F5F5F5F5F5F5F5F5F5F5F5F5F5F5F5F5F5F5F5F5F5F5F5F5F5F5F5F5F5F5F5F5F5F5F5F5F5F5F5F5F5F5F5F5F5F5F5F5F5F5F5F5F5F5F5F5F5F5F5F5F5F5F5F5F5F5F5F5F5F5F5F5F5F5F5F5F5F5F5F5F5F5F5F5F5F5F5F5F5F5F5F5F5F5F5F5F5F5
310
F5F5F5F5F5F5F5F5F5F5F5F5F5F5F5F5F5F5F5F5F5F5F5F5F5F5F5F5F5F5F5F5F5F5F5F5F5E2E2E2F5F5F5F5F5F5F5F5F5F5F5F5F5F5F5F5F5F5F5F5F5F5F5F5F5F5F5F5F5F5F5F5F5F5F5F5F5F5F5F5F5F5F5F5F5F5F5F5F5F5F5F5F5F5F5F5F5F5F5F5F5F5F5F5F5F5F5F5F5F5F5F5F5F5F5F5F5F5F5F5F5F5F5F5F5F5F5
310
F5F5F5F5F5F5F5F5F5F5F5F5F5F5F5F5F5F5F5F5F5F5F5F5F5F5F5F5F5F5F5F5F5F5F5F5F5F5F5F5F5F5F5F5F5F5F5F5F5F5F5F5F5F5F5F5F5F5F5F5F5F5F5F5F5F5F5F5F5F5F5F5F5F5F5F5F5F5F5F5F5F5F5F5F5F5F5F5F5F5E2E2E2F5F5F5F5F5F5F5F5F5F5F5F5F5F5F5F5F5F5F5F5F5F5F5F5F5F5F5F5F5F5F5F5F5F5
310
F5F5F5F5F5F5F5F5F5F5F5F5F5F5F5F5F5F5F5F5F5F5F5F5F5F5F5F5F5F5F5F5F5F5F5F5F5F5F5F5F5F5F5F5F5F5F5F5F5F5F5F5F5F5F5F5F5F5F5F5F5F5F5F5F5F5F5F5F5F5F5F5F5F5F5F5F5F5F5F5F5F5F5F5F5F5F5F5F5F5F5F5F5F5F5F5F5F5F5F5F5F5F5F5F5F5F5F5F5F5F5F5F5F5F5F5F5F5F5F5F5F5F5F5F5F5F5
310
F5F5F5F5F5F5F5F5F5F5F5F5F5F5F5F5E2E2E2F5F5F5F5F5F5F5F5F5F5F5F5F5F5F5F5F5F5F5F5F5F5F5F5F5F5F5F5F5F5F5F5F5F5F5F5F5F5F5F5F5F5F5F5F5F5F5F5F5F5F5F5F5F5F5F5F5F5F5F5F5F5F5F5F5F5F5F5F5F5F5F5F5F5F5F5F5F5F5F5F5F5F5F5F5F5F5F5F5F5F5F5F5F5F5F5F5F5F5F5F5F5F5F5F5F5F5F5
310
F5F5F5F5F5F5F5F5F5F5F5F5F5F5F5F5F5F5F5F5F5F5F5F5F5F5F5F5F5F5F5F5F5F5F5F5F5F5F5F5F5F5F5F5F5F5F5F5F5F5F5F5F5F5F5F5F5F5F5F5F5F5F5F5F5F5F5F5F5E2E2E2F5F5F5F5F5F5F5F5F5F5F5F5F5F5F5F5F5F5F5F5F5F5F5F5F5F5F5F5F5F5F5F5F5F5F5F5F5F5F5F5F5F5F5F5F5F5F5F5F5F5F5F5F5F5F5
310
F5F5F5F5F5F5F5F5F5F5F5F5F5F5F5F5F5F5F5F5F5F5F5F5F5F5F5F5F5F5F5F5F5F5F5F5F5F5F5F5F5F5F5F5F5F5F5F5F5F5F5F5F5F5F5F5F5F5F5F5F5F5F5F5F5F5F5F5F5F5F5F5F5F5F5F5F5F5F5F5F5F5F5F5F5F5F5F5F5F5F5F5F5F5F5F5F5F5F5F5F5F5F5F5F5F5F5F5F5F5F5F5F5F5F5F5F5F5F5F5F5F5E2E2E2F5F5
310
E2F5F5F5F5F5F5F5F5F5F5F5F5F5F5F5F5F5F5F5F5F5F5F5F5F5F5F5F5F5F5F5F5F5F5F5F5F5F5F5F5F5F5F5F5F5F5F5F5F5F5F5F5F5F5F5F5F5F5F5F5F5F5F5F5F5F5F5F5F5F5F5F5F5F5F5F5F5F5F5F5F5F5F5F5F5F5F5F5F5F5F5F5F5F5F5F5F5F5F5F5F5F5F5F5F5F5F5F5F5F5F5F5F5F5F5F5F5F5F5F5F5F5F5F5F5F5
310
F5F5F5F5F5F5F5F5F5F5F5F5F5F5F5F5F5F5F5F5F5F5F5F5F5F5F5F5F5F5F5F5F5F5F5F5F5F5F5F5F5F5F5F5E2F5F5F5E2E2E2F5F5E2F5F5F5F5F5F5F5F5F5F5F5F5F5F5F5F5F5F5F5F5F5F5F5F5F5F5F5F5F5F5F5F5F5F5F5F5F5F5F5F5F5F5F5F5F5F5F5F5F5F5F5F5F5F5F5F5F5F5F5F5F5F5F5F5F5F5F5F5F5F5F5F5F5
310
F5F5F5F5F5F5F5F5F5F5F5F5F5F5F5F5F5F5F5F5F5F5F5F5F5F5F5F5F5F5F5F5F5F5F5F5F5F5F5F5F5F5F5F5F5F5F5F5F5F5F5F5F5F5F5F5F5F5F5F5F5F5F5F5F5F5F5F5F5F5F5F5F5F5F5F5F5F5F5F5F5F5F5F5F5F5F5F5F5F5F5F5F5F5F5F5F5E2F5F5F5E2E2E2F5F5E2F5F5F5F5F5F5F5F5F5F5F5F5F5F5F5F5F5F5F5F5
310
F5F5F5F5F5F5F5F5F5F5F5F5F5F5F5F5F5F5F5F5F5F5F5F5F5F5F5F5F5F5F5F5F5F5F5F5F5F5F5F5F5F5F5F5F5F5F5F5F5F5F5F5F5F5F5F5F5F5F5F5F5F5F5F5F5F5F5F5F5F5F5F5F5F5F5F5F5F5F5F5F5F5F5F5F5F5F5F5F5F5F5F5F5F5F5F5F5F5F5F5F5F5F5F5F5F5F5F5F5F5F5F5F5F5F5F5F5F5F5F5F5F5F5F5F5F5F5
310
F5F5F5F5F5F5F5F5F5F5F5F5F5F5F5F5F5F5F5F5F5F5F5E2F5F5F5E2E2E2F5F5E2F5F5F5F5F5F5F5F5F5F5F5F5F5F5F5F5F5F5F5F5F5F5F5F5F5F5F5F5F5F5F5F5F5F5F5F5F5F5F5F5F5F5F5F5F5F5F5F5F5F5F5F5F5F5F5F5F5F5F5F5F5F5F5F5F5F5F5F5F5F5F5F5F5F5F5F5F5F5F5F5F5F5F5F5F5F5F5F5F5F5F5F5F5F5
310
F5F5F5F5F5F5F5F5F5F5F5F5F5F5F5F5F5F5F5F5F5F5F5F5F5F5F5F5F5F5F5F5F5F5F5F5F5F5F5F5F5F5F5F5F5F5F5F5F5F5F5F5F5F5F5F5F5F5F5F5F5F5F5F5F5F5F5F5F5F5F5F5F5F5F5F5E2F5F5F5E2E2E2F5F5E2F5F5F5F5F5F5F5F5F5F5F5F5F5F5F5F5F5F5F5F5F5F5F5F5F5F5F5F5F5F5F5F5F5F5F5F5F5F5F5F5F5
310
F5F5F5F5F5F5F5F5F5F5F5F5F5F5F5F5F5F5F5F5F5F5F5F5F5F5F5F5F5F5F5F5F5F5F5F5F5F5F5F5F5F5F5F5F5F5F5F5F5F5F5F5F5F5F5F5F5F5F5F5F5F5F5F5F5F5F5F5F5F5F5F5F5F5F5F5F5F5F5F5F5F5F5F5F5F5F5F5F5F5F5F5F5F5F5F5F5F5F5F5F5F5F5F5F5F5F5F5F5F5F5F5F5F5F5F5F5F5F5F5F5F5F5F5F5F5F5
310
F5F5E2F5F5F5E2E2E2F5F5E2F5F5F5F5F5F5F5F5F5F5F5F5F5F5F5F5F5F5F5F5F5F5F5F5F5F5F5F5F5F5F5F5F5F5F5F5F5F5F5F5F5F5F5F5F5F5F5F5F5F5F5F5F5F5F5F5F5F5F5F5F5F5F5F5F5F5F5F5F5F5F5F5F5F5F5F5F5F5F5F5F5F5F5F5F5F5F5F5F5F5F5F5F5F5F5F5F5F5F5F5F5F5F5F5F5F5F5F5F5F5F5F5F5F5F5
310
F5F5F5F5F5F5F5F5F5F5F5F5F5F5F5F5F5F5F5F5F5F5F5F5F5F5F5F5F5F5F5F5F5F5F5F5F5F5F5F5F5F5F5F5F5F5F5F5F5F5F5F5F5F5F5E2F5F5F5E2E2E2F5F5E2F5F5F5F5F5F5F5F5F5F5F5F5F5F5F5F5F5F5F5F5F5F5F5F5F5F5F5F5F5F5F5F5F5F5F5F5F5F5F5F5F5F5F5F5F5F5F5F5F5F5F5F5F5F5F5F5F5F5F5F5F5F5
310
F5F5F5F5F5F5F5F5F5F5F5F5F5F5F5F5F5F5F5F5F5F5F5F5F5F5F5F5F5F5F5F5F5F5F5F5F5F5F5F5F5F5F5F5F5F5F5F5F5F5F5F5F5F5F5F5F5F5F5F5F5F5F5F5F5F5F5F5F5F5F5F5F5F5F5F5F5F5F5F5F5F5F5F5F5F5F5F5F5F5F5F5F5F5F5F5F5F5F5F5F5F5F5F5F5F5F5F5E2F5F5F5E2E2E2F5F5E2F5F5F5F5F5F5F5F5F5
310
F5F5F5F5F5F5F5F5F5F5F5F5F5F5F5F5F5F5F5F5F5F5F5F5F5F5F5F5F5F5F5F5F5F5F5F5F5F5F5F5F5F5F5F5F5F5F5F5F5F5F5F5F5F5F5F5F5F5F5F5F5F5F5F5F5F5F5F5F5F5F5F5F5F5F5F5F5F5F5F5F5F5F5F5F5F5F5F5F5F5F5F5F5F5F5F5F5F5F5F5F5F5F5F5F5F5F5F5F5F5F5F5F5F5F5F5F5F5F5F5F5F5F5F5F5F5F5
310
F5F5F5F5F5F5F5F5F5F5F5F5F5F5F5F5F5F5F5F5F5F5F5F5F5F5F5F5F5F5F5F5F5F5E2F5F5F5E2E2E2F5F5E2F5F5F5F5F5F5F5F5F5F5F5F5F5F5F5F5F5F5F5F5F5F5F5F5F5F5F5F5F5F5F5F5F5F5F5F5F5F5F5F5F5F5F5F5F5F5F5F5F5F5F5F5F5F5F5F5F5F5F5F5F5F5F5F5F5F5F5F5F5F5F5F5F5F5F5F5F5F5F5F5F5F5F5
310
F5F5F5F5F5F5F5F5F5F5F5F5F5F5F5F5F5F5F5F5F5F5F5F5F5F5F5F5F5F5F5F5F5F5F5F5F5F5F5F5F5F5F5F5F5F5F5F5F5F5F5F5F5F5F5F5F5F5F5F5F5F5F5F5F5F5F5F5F5F5F5F5F5F5F5F5F5F5F5F5F5F5F5F5F5F5F5E2F5F5F5E2E2E2F5F5E2F5F5F5F5F5F5F5F5F5F5F5F5F5F5F5F5F5F5F5F5F5F5F5F5F5F5F5F5F5F5
310
F5F5F5F5F5F5F5F5F5F5F5F5F5F5F5F5F5F5F5F5F5F5F5F5F5F5F5F5F5F5F5F5F5F5F5F5F5F5F5F5F5F5F5F5F5F5F5F5F5F5F5F5F5F5F5F5F5F5F5F5F5F5F5F5F5F5F5F5F5F5F5F5F5F5F5F5F5F5F5F5F5F5F5F5F5F5F5F5F5F5F5F5F5F5F5F5F5F5F5F5F5F5F5F5F5F5F5F5F5F5F5F5F5F5F5F5F5F5F5F5F5F5F5F5F5F5F5
310
F5F5F5F5F5F5F5F5F5F5F5F5F5E2F5F5F5E2E2E2F5F5E2F5F5F5F5F5F5F5F5F5F5F5F5F5F5F5F5F5F5F5F5F5F5F5F5F5F5F5F5F5F5F5F5F5F5F5F5F5F5F5F5F5F5F5F5F5F5F5F5F5F5F5F5F5F5F5F5F5F5F5F5F5F5F5F5F5F5F5F5F5F5F5F5F5F5F5F5F5F5F5F5F5F5F5F5F5F5F5F5F5F5F5F5F5F5F5F5F5F5F5F5F5F5F5F5
310
F5F5F5F5F5F5F5F5F5F5F5F5F5F5F5F5F5F5F5F5F5F5F5F5F5F5F5F5F5F5F5F5F5F5F5F5F5F5F5F5F5F5F5F5F5F5F5F5F5F5F5F5F5F5F5F5F5F5F5F5F5F5F5F5F5F5E2F5F5F5E2E2E2F5F5E2F5F5F5F5F5F5F5F5F5F5F5F5F5F5F5F5F5F5F5F5F5F5F5F5F5F5F5F5F5F5F5F5F5F5F5F5F5F5F5F5F5F5F5F5F5F5F5F5F5F5F5
310
F5F5F5F5F5F5F5F5F5F5F5F5F5F5F5F5F5F5F5F5F5F5F5F5F5F5F5F5F5F5F5F5F5F5F5F5F5F5F5F5F5F5F5F5F5F5F5F5F5F5F5F5F5F5F5F5F5F5F5F5F5F5F5F5F5F5F5F5F5F5F5F5F5F5F5F5F5F5F5F5F5F5F5F5F5F5F5F5F5F5F5F5F5F5F5F5F5F5F5F5F5F5F5F5F5F5F5F5F5F5F5F5F5F5F5F5F5F5F5E2F5F5F5E2E2E2F5
310
F5E2F5F5F5F5F5F5F5F5F5F5F5F5F5F5F5F5F5F5F5F5F5F5F5F5F5F5F5F5F5F5F5F5F5F5F5F5F5F5F5F5F5F5F5F5F5F5F5F5F5F5F5F5F5F5F5F5F5F5F5F5F5F5F5F5F5F5F5F5F5F5F5F5F5F5F5F5F5F5F5F5F5F5F5F5F5F5F5F5F5F5F5F5F5F5F5F5F5F5F5F5F5F5F5F5F5F5F5F5F5F5F5F5F5F5F5F5F5F5F5F5F5F5F5F5F5
310
F5F5F5F5F5F5F5F5F5F5F5F5F5F5F5F5F5F5F5F5F5F5F5F5F5F5F5F5F5F5F5F5F5F5F5F5F5F5F5F5F5F5F5F5F5E2F5F5F5E2E2E2F5F5E2F5F5F5F5F5F5F5F5F5F5F5F5F5F5F5F5F5F5F5F5F5F5F5F5F5F5F5F5F5F5F5F5F5F5F5F5F5F5F5F5F5F5F5F5F5F5F5F5F5F5F5F5F5F5F5F5F5F5F5F5F5F5F5F5F5F5F5F5F5F5F5F5
310
F5F5F5F5F5F5F5F5F5F5F5F5F5F5F5F5F5F5F5F5F5F5F5F5F5F5F5F5F5F5F5F5F5F5F5F5F5F5F5F5F5F5F5F5F5F5F5F5F5F5F5F5F5F5F5F5F5F5F5F5F5F5F5F5F5F5F5F5F5F5F5F5F5F5F5F5F5F5F5F5F5F5F5F5F5F5F5F5F5F5F5F5F5F5F5F5F5F5E2F5F5F5E2E2E2F5F5E2F5F5F5F5F5F5F5F5F5F5F5F5F5F5F5F5F5F5F5
310
F5F5F5F5F5F5F5F5F5F5F5F5F5F5F5F5F5F5F5F5F5F5F5F5F5F5F5F5F5F5F5F5F5F5F5F5F5F5F5F5F5F5F5F5F5F5F5F5F5F5F5F5F5F5F5F5F5F5F5F5F5F5F5F5F5F5F5F5F5F5F5F5F5F5F5F5F5F5F5F5F5F5F5F5F5F5F5F5F5F5F5F5F5F5F5F5F5F5F5F5F5F5F5F5F5F5F5F5F5F5F5F5F5F5F5F5F5F5F5F5F5F5F5F5F5F5F5
310
F5F5F5F5F5F5F5F5F5F5F5F5F5F5F5F5F5F5F5F5F5F5F5F5E2F5F5F5E2E2E2F5F5E2F5F5F5F5F5F5F5F5F5F5F5F5F5F5F5F5F5F5F5F5F5F5F5F5F5F5F5F5F5F5F5F5F5F5F5F5F5F5F5F5F5F5F5F5F5F5F5F5F5F5F5F5F5F5F5F5F5F5F5F5F5F5F5F5F5F5F5F5F5F5F5F5F5F5F5F5F5F5F5F5F5F5F5F5F5F5F5F5F5F5F5F5F5
310
F5F5F5F5F5F5F5F5F5F5F5F5F5F5F5F5F5F5F5F5F5F5F5F5F5F5F5F5F5F5F5F5F5F5F5F5F5F5F5F5F5F5F5F5F5F5F5F5F5F5F5F5F5F5F5F5F5F5F5F5F5F5F5F5F5F5F5F5F5F5F5F5F5F5F5F5F5E2F5F5F5E2E2E2F5F5F5F5F5F5F5F5F5F5F5F5F5F5F5F5F5F5F5F5F5F5F5F5F5F5F5F5F5F5F5F5F5F5F5F5F5F5F5F5F5F5F5
310
F5F5F5F5F5F5F5F5F5F5F5F5F5F5F5F5F5F5F5F5F5F5F5F5F5F5F5F5F5F5F5F5F5F5F5F5F5F5F5F5F5F5F5F5F5F5F5F5F5F5F5F5F5F5F5F5F5F5F5F5F5F5F5F5F5F5F5F5F5F5F5F5F5F5F5F5F5F5F5F5F5F5F5F5F5F5F5F5F5F5F5F5F5F5F5F5F5F5F5F5F5F5F5F5F5F5F5F5F5F5F5F5F5F5F5F5F5F5F5F5F5F5F5F5F5F5F5
310
F5F5F5F5F5F5F5E2E2E2F5F5F5F5F5F5F5F5F5F5F5F5F5F5F5F5F5F5F5F5F5F5F5F5F5F5F5F5F5F5F5F5F5F5F5F5F5F5F5F5F5F5F5F5F5F5F5F5F5F5F5F5F5F5F5F5F5F5F5F5F5F5F5F5F5F5F5F5F5F5F5F5F5F5F5F5F5F5F5F5F5F5F5F5F5F5F5F5F5F5F5F5F5F5F5F5F5F5F5F5F5F5F5F5F5F5F5F5F5F5F5F5F5F5F5F5F5
310
F5F5F5F5F5F5F5F5F5F5F5F5F5F5F5F5F5F5F5F5F5F5F5F5F5F5F5F5F5F5F5F5F5F5F5F5F5F5F5F5F5F5F5F5F5F5F5F5F5F5F5F5F5F5F5F5F5F5F5F5E2E2E2F5F5F5F5F5F5F5F5F5F5F5F5F5F5F5F5F5F5F5F5F5F5F5F5F5F5F5F5F5F5F5F5F5F5F5F5F5F5F5F5F5F5F5F5F5F5F5F5F5F5F5F5F5F5F5F5F5F5F5F5F5F5F5F5
310
F5F5F5F5F5F5F5F5F5F5F5F5F5F5F5F5F5F5F5F5F5F5F5F5F5F5F5F5F5F5F5F5F5F5F5F5F5F5F5F5F5F5F5F5F5F5F5F5F5F5F5F5F5F5F5F5F5F5F5F5F5F5F5F5F5F5F5F5F5F5F5F5F5F5F5F5F5F5F5F5F5F5F5F5F5F5F5F5F5F5F5F5F5F5F5F5F5F5F5F5F5F5F5F5F5F5F5F5F5F5F5F5F5E2E2E2F5F5F5F5F5F5F5F5F5F5F5
310
F5F5F5F5F5F5F5F5F5F5F5F5F5F5F5F5F5F5F5F5F5F5F5F5F5F5F5F5F5F5F5F5F5F5F5F5F5F5F5F5F5F5F5F5F5F5F5F5F5F5F5F5F5F5F5F5F5F5F5F5F5F5F5F5F5F5F5F5F5F5F5F5F5F5F5F5F5F5F5F5F5F5F5F5F5F5F5F5F5F5F5F5F5F5F5F5F5F5F5F5F5F5F5F5F5F5F5F5F5F5F5F5F5F5F5F5F5F5F5F5F5F5F5F5F5F5F5
310
F5F5F5F5F5F5F5F5F5F5F5F5F5F5F5F5F5F5F5F5F5F5F5F5F5F5F5F5F5F5F5F5F5F5F5F5F5F5F5E2E2E2F5F5F5F5F5F5F5F5F5F5F5F5F5F5F5F5F5F5F5F5F5F5F5F5F5F5F5F5F5F5F5F5F5F5F5F5F5F5F5F5F5F5F5F5F5F5F5F5F5F5F5F5F5F5F5F5F5F5F5F5F5F5F5F5F5F5F5F5F5F5F5F5F5F5F5F5F5F5F5F5F5F5F5F5F5
310
F5F5F5F5F5F5F5F5F5F5F5F5F5F5F5F5F5F5F5F5F5F5F5F5F5F5F5F5F5F5F5F5F5F5F5F5F5F5F5F5F5F5F5F5F5F5F5F5F5F5F5F5F5F5F5F5F5F5F5F5F5F5F5F5F5F5F5F5F5F5F5F5F5F5F5F5F5F5F5F5F5F5F5F5F5F5F5F5F5F5F5F5E2E2E2F5F5F5F5F5F5F5F5F5F5F5F5F5F5F5F5F5F5F5F5F5F5F5F5F5F5F5F5F5F5F5F5
310
F5F5F5F5F5F5F5F5F5F5F5F5F5F5F5F5F5F5F5F5F5F5F5F5F5F5F5F5F5F5F5F5F5F5F5F5F5F5F5F5F5F5F5F5F5F5F5F5F5F5F5F5F5F5F5F5F5F5F5F5F5F5F5F5F5F5F5F5F5F5F5F5F5F5F5F5F5F5F5F5F5F5F5F5F5F5F5F5F5F5F5F5F5F5F5F5F5F5F5F5F5F5F5F5F5F5F5F5F5F5F5F5F5F5F5F5F5F5F5F5F5F5F5F5F5F5F5
310
F5F5F5F5F5F5F5F5F5F5F5F5F5F5F5F5F5F5E2E2E2F5F5F5F5F5F5F5F5F5F5F5F5F5F5F5F5F5F5F5F5F5F5F5F5F5F5F5F5F5F5F5F5F5F5F5F5F5F5F5F5F5F5F5F5F5F5F5F5F5F5F5F5F5F5F5F5F5F5F5F5F5F5F5F5F5F5F5F5F5F5F5F5F5F5F5F5F5F5F5F5F5F5F5F5F5F5F5F5F5F5F5F5F5F5F5F5F5F5F5F5F5F5F5F5F5F5
310
F5F5F5F5F5F5F5F5F5F5F5F5F5F5F5F5F5F5F5F5F5F5F5F5F5F5F5F5F5F5F5F5F5F5F5F5F5F5F5F5F5F5F5F5F5F5F5F5F5F5F5F5F5F5F5F5F5F5F5F5F5F5F5F5F5F5F5F5F5F5F5E2E2E2F5F5F5F5F5F5F5F5F5F5F5F5F5F5F5F5F5F5F5F5F5F5F5F5F5F5F5F5F5F5F5F5F5F5F5F5F5F5F5F5F5F5F5F5F5F5F5F5F5F5F5F5F5
310
F5F5F5F5F5F5F5F5F5F5F5F5F5F5F5F5F5F5F5F5F5F5F5F5F5F5F5F5F5F5F5F5F5F5F5F5F5F5F5F5F5F5F5F5F5F5F5F5F5F5F5F5F5F5F5F5F5F5F5F5F5F5F5F5F5F5F5F5F5F5F5F5F5F5F5F5F5F5F5F5F5F5F5F5F5F5F5F5F5F5F5F5F5F5F5F5F5F5F5F5F5F5F5F5F5F5F5F5F5F5F5F5F5F5F5F5F5F5F5F5F5F5F5F5E2E2E2
310
F5F5F5F5F5F5F5F5F5F5F5F5F5F5F5F5F5F5F5F5F5F5F5F5F5F5F5F5F5F5F5F5F5F5F5F5F5F5F5F5F5F5F5F5F5F5F5F5F5F5F5F5F5F5F5F5F5F5F5F5F5F5F5F5F5F5F5F5F5F5F5F5F5F5F5F5F5F5F5F5F5F5F5F5F5F5F5F5F5F5F5F5F5F5F5F5F5F5F5F5F5F5F5F5F5F5F5F5F5F5F5F5F5F5F5F5F5F5F5F5F5F5F5F5F5F5F5
310
F5F5F5F5F5F5F5F5F5F5F5F5F5F5F5F5F5F5F5F5F5F5F5F5F5F5F5F5F5F5F5F5F5F5F5F5F5F5F5F5F5F5F5F5F5F5F5F5F5F5E2E2E2F5F5F5F5F5F5F5F5F5F5F5F5F5F5F5F5F5F5F5F5F5F5F5F5F5F5F5F5F5F5F5F5F5F5F5F5F5F5F5F5F5F5F5F5F5F5F5F5F5F5F5F5F5F5F5F5F5F5F5F5F5F5F5F5F5F5F5F5F5F5F5F5F5F5
310
F5F5F5F5F5F5F5F5F5F5F5F5F5F5F5F5F5F5F5F5F5F5F5F5F5F5F5F5F5F5F5F5F5F5F5F5F5F5F5F5F5F5F5F5F5F5F5F5F5F5F5F5F5F5F5F5F5F5F5F5F5F5F5F5F5F5F5F5F5F5F5F5F5F5F5F5F5F5F5F5F5F5F5F5F5F5F5F5F5F5F5F5F5F5F5F5F5F5F5F5F5F5F5E2E2E2F5F5E2F5F5F5F5F5F5F5F5F5F5F5F5F5F5F5F5F5F5
310
F5F5F5F5F5F5F5F5F5F5F5F5F5F5F5F5F5F5F5F5F5F5F5F5F5F5F5F5F5F5F5F5F5F5F5F5F5F5F5F5F5F5F5F5F5F5F5F5F5F5F5F5F5F5F5F5F5F5F5F5F5F5F5F5F5F5F5F5F5F5F5F5F5F5F5F5F5F5F5F5F5F5F5F5F5F5F5F5F5F5F5F5F5F5F5F5F5F5F5F5F5F5F5F5F5F5F5F5F5F5F5F5F5F5F5F5F5F5F5F5F5F5F5F5F5F5F5
310
F5F5F5F5F5F5F5F5F5F5F5F5F5F5F5F5F5F5F5F5F5F5F5F5F5E2F5F5F5E2E2E2F5F5E2F5F5F5F5F5F5F5F5F5F5F5F5F5F5F5F5F5F5F5F5F5F5F5F5F5F5F5F5F5F5F5F5F5F5F5F5F5F5F5F5F5F5F5F5F5F5F5F5F5F5F5F5F5F5F5F5F5F5F5F5F5F5F5F5F5F5F5F5F5F5F5F5F5F5F5F5F5F5F5F5F5F5F5F5F5F5F5F5F5F5F5F5
310
F5F5F5F5F5F5F5F5F5F5F5F5F5F5F5F5F5F5F5F5F5F5F5F5F5F5F5F5F5F5F5F5F5F5F5F5F5F5F5F5F5F5F5F5F5F5F5F5F5F5F5F5F5F5F5F5F5F5F5F5F5F5F5F5F5F5F5F5F5F5F5F5F5F5F5F5F5F5E2F5F5F5E2E2E2F5F5E2F5F5F5F5F5F5F5F5F5F5F5F5F5F5F5F5F5F5F5F5F5F5F5F5F5F5F5F5F5F5F5F5F5F5F5F5F5F5F5
310
F5F5F5F5F5F5F5F5F5F5F5F5F5F5F5F5F5F5F5F5F5F5F5F5F5F5F5F5F5F5F5F5F5F5F5F5F5F5F5F5F5F5F5F5F5F5F5F5F5F5F5F5F5F5F5F5F5F5F5F5F5F5F5F5F5F5F5F5F5F5F5F5F5F5F5F5F5F5F5F5F5F5F5F5F5F5F5F5F5F5F5F5F5F5F5F5F5F5F5F5F5F5F5F5F5F5F5F5F5F5F5F5F5F5F5F5F5F5F5F5F5F5F5F5F5F5F5
310
F5F5F5F5E2F5F5F5E2E2E2F5F5E2F5F5F5F5F5F5F5F5F5F5F5F5F5F5F5F5F5F5F5F5F5F5F5F5F5F5F5F5F5F5F5F5F5F5F5F5F5F5F5F5F5F5F5F5F5F5F5F5F5F5F5F5F5F5F5F5F5F5F5F5F5F5F5F5F5F5F5F5F5F5F5F5F5F5F5F5F5F5F5F5F5F5F5F5F5F5F5F5F5F5F5F5F5F5F5F5F5F5F5F5F5F5F5F5F5F5F5F5F5F5F5F5F5
310
F5F5F5F5F5F5F5F5F5F5F5F5F5F5F5F5F5F5F5F5F5F5F5F5F5F5F5F5F5F5F5F5F5F5F5F5F5F5F5F5F5F5F5F5F5F5F5F5F5F5F5F5F5F5F5F5F5E2F5F5F5E2E2E2F5F5E2F5F5F5F5F5F5F5F5F5F5F5F5F5F5F5F5F5F5F5F5F5F5F5F5F5F5F5F5F5F5F5F5F5F5F5F5F5F5F5F5F5F5F5F5F5F5F5F5F5F5F5F5F5F5F5F5F5F5F5F5
310
F5F5F5F5F5F5F5F5F5F5F5F5F5F5F5F5F5F5F5F5F5F5F5F5F5F5F5F5F5F5F5F5F5F5F5F5F5F5F5F5F5F5F5F5F5F5F5F5F5F5F5F5F5F5F5F5F5F5F5F5F5F5F5F5F5F5F5F5F5F5F5F5F5F5F5F5F5F5F5F5F5F5F5F5F5F5F5F5F5F5F5F5F5F5F5F5F5F5F5F5F5F5F5F5F5F5F5F5F5F5E2F5F5F5E2E2E2F5F5E2F5F5F5F5F5F5F5
310
F5F5F5F5F5F5F5F5F5F5F5F5F5F5F5F5F5F5F5F5F5F5F5F5F5F5F5F5F5F5F5F5F5F5F5F5F5F5F5F5F5F5F5F5F5F5F5F5F5F5F5F5F5F5F5F5F5F5F5F5F5F5F5F5F5F5F5F5F5F5F5F5F5F5F5F5F5F5F5F5F5F5F5F5F5F5F5F5F5F5F5F5F5F5F5F5F5F5F5F5F5F5F5F5F5F5F5F5F5F5F5F5F5F5F5F5F5F5F5F5F5F5F5F5F5F5F5
310
F5F5F5F5F5F5F5F5F5F5F5F5F5F5F5F5F5F5F5F5F5F5F5F5F5F5F5F5F5F5F5F5F5F5F5F5E2F5F5F5E2E2E2F5F5E2F5F5F5F5F5F5F5F5F5F5F5F5F5F5F5F5F5F5F5F5F5F5F5F5F5F5F5F5F5F5F5F5F5F5F5F5F5F5F5F5F5F5F5F5F5F5F5F5F5F5F5F5F5F5F5F5F5F5F5F5F5F5F5F5F5F5F5F5F5F5F5F5F5F5F5F5F5F5F5F5F5
310
F5F5F5F5F5F5F5F5F5F5F5F5F5F5F5F5F5F5F5F5F5F5F5F5F5F5F5F5F5F5F5F5F5F5F5F5F5F5F5F5F5F5F5F5F5F5F5F5F5F5F5F5F5F5F5F5F5F5F5F5F5F5F5F5F5F5F5F5F5F5F5F5F5F5F5F5F5F5F5F5F5F5F5F5F5F5F5F5F5E2F5F5F5E2E2E2F5F5E2F5F5F5F5F5F5F5F5F5F5F5F5F5F5F5F5F5F5F5F5F5F5F5F5F5F5F5F5
310
F5F5F5F5F5F5F5F5F5F5F5F5F5F5F5F5F5F5F5F5F5F5F5F5F5F5F5F5F5F5F5F5F5F5F5F5F5F5F5F5F5F5F5F5F5F5F5F5F5F5F5F5F5F5F5F5F5F5F5F5F5F5F5F5F5F5F5F5F5F5F5F5F5F5F5F5F5F5F5F5F5F5F5F5F5F5F5F5F5F5F5F5F5F5F5F5F5F5F5F5F5F5F5F5F5F5F5F5F5F5F5F5F5F5F5F5F5F5F5F5F5F5F5F5F5F5F5
310
F5F5F5F5F5F5F5F5F5F5F5F5F5F5F5E2F5F5F5E2E2E2F5F5E2F5F5F5F5F5F5F5F5F5F5F5F5F5F5F5F5F5F5F5F5F5F5F5F5F5F5F5F5F5F5F5F5F5F5F5F5F5F5F5F5F5F5F5F5F5F5F5F5F5F5F5F5F5F5F5F5F5F5F5F5F5F5F5F5F5F5F5F5F5F5F5F5F5F5F5F5F5F5F5F5F5F5F5F5F5F5F5F5F5F5F5F5F5F5F5F5F5F5F5F5F5F5
310
F5F5F5F5F5F5F5F5F5F5F5F5F5F5F5F5F5F5F5F5F5F5F5F5F5F5F5F5F5F5F5F5F5F5F5F5F5F5F5F5F5F5F5F5F5F5F5F5F5F5F5F5F5F5F5F5F5F5F5F5F5F5F5F5F5F5F5F5E2F5F5F5E2E2E2F5F5E2F5F5F5F5F5F5F5F5F5F5F5F5F5F5F5F5F5F5F5F5F5F5F5F5F5F5F5F5F5F5F5F5F5F5F5F5F5F5F5F5F5F5F5F5F5F5F5F5F5
310
F5F5F5F5F5F5F5F5F5F5F5F5F5F5F5F5F5F5F5F5F5F5F5F5F5F5F5F5F5F5F5F5F5F5F5F5F5F5F5F5F5F5F5F5F5F5F5F5F5F5F5F5F5F5F5F5F5F5F5F5F5F5F5F5F5F5F5F5F5F5F5F5F5F5F5F5F5F5F5F5F5F5F5F5F5F5F5F5F5F5F5F5F5F5F5F5F5F5F5F5F5F5F5F5F5F5F5F5F5F5F5F5F5F5F5F5F5F5F5F5F5E2F5F5F5E2E2
310
E2F5F5E2F5F5F5F5F5F5F5F5F5F5F5F5F5F5F5F5F5F5F5F5F5F5F5F5F5F5F5F5F5F5F5F5F5F5F5F5F5F5F5F5F5F5F5F5F5F5F5F5F5F5F5F5F5F5F5F5F5F5F5F5F5F5F5F5F5F5F5F5F5F5F5F5F5F5F5F5F5F5F5F5F5F5F5F5F5F5F5F5F5F5F5F5F5F5F5F5F5F5F5F5F5F5F5F5F5F5F5F5F5F5F5F5F5F5F5F5F5F5F5F5F5F5F5
310
F5F5F5F5F5F5F5F5F5F5F5F5F5F5F5F5F5F5F5F5F5F5F5F5F5F5F5F5F5F5F5F5F5F5F5F5F5F5F5F5F5F5F5F5F5F5F5E2F5F5F5E2E2E2F5F5E2F5F5F5F5F5F5F5F5F5F5F5F5F5F5F5F5F5F5F5F5F5F5F5F5F5F5F5F5F5F5F5F5F5F5F5F5F5F5F5F5F5F5F5F5F5F5F5F5F5F5F5F5F5F5F5F5F5F5F5F5F5F5F5F5F5F5F5F5F5F5
310
F5F5F5F5F5F5F5F5F5F5F5F5F5F5F5F5F5F5F5F5F5F5F5F5F5F5F5F5F5F5F5F5F5F5F5F5F5F5F5F5F5F5F5F5F5F5F5F5F5F5F5F5F5F5F5F5F5F5F5F5F5F5F5F5F5F5F5F5F5F5F5F5F5F5F5F5F5F5F5F5F5F5F5F5F5F5F5F5F5F5F5F5F5F5F5F5F5F5F5F5E2F5F5F5E2E2E2F5F5E2F5F5F5F5F5F5F5F5F5F5F5F5F5F5F5F5F5
310
F5F5F5F5F5F5F5F5F5F5F5F5F5F5F5F5F5F5F5F5F5F5F5F5F5F5F5F5F5F5F5F5F5F5F5F5F5F5F5F5F5F5F5F5F5F5F5F5F5F5F5F5F5F5F5F5F5F5F5F5F5F5F5F5F5F5F5F5F5F5F5F5F5F5F5F5F5F5F5F5F5F5F5F5F5F5F5F5F5F5F5F5F5F5F5F5F5F5F5F5F5F5F5F5F5F5F5F5F5F5F5F5F5F5F5F5F5F5F5F5F5F5F5F5F5F5F5
310
F5F5F5F5F5F5F5F5F5F5F5F5F5F5F5F5F5F5F5F5F5F5F5F5F5F5E2F5F5F5E2E2E2F5F5E2F5F5F5F5F5F5F5F5F5F5F5F5F5F5F5F5F5F5F5F5F5F5F5F5F5F5F5F5F5F5F5F5F5F5F5F5F5F5F5F5F5F5F5F5F5F5F5F5F5F5F5F5F5F5F5F5F5F5F5F5F5F5F5F5F5F5F5F5F5F5F5F5F5F5F5F5F5F5F5F5F5F5F5F5F5F5F5F5F5F5F5
310
F5F5F5F5F5F5F5F5F5F5F5F5F5F5F5F5F5F5F5F5F5F5F5F5F5F5F5F5F5F5F5F5F5F5F5F5F5F5F5F5F5F5F5F5F5F5F5F5F5F5F5F5F5F5F5F5F5F5F5F5F5F5F5F5F5F5F5F5F5F5F5F5F5F5F5F5F5F5F5E2F5F5F5E2E2E2F5F5E2F5F5F5F5F5F5F5F5F5F5F5F5F5F5F5F5F5F5F5F5F5F5F5F5F5F5F5F5F5F5F5F5F5F5F5F5F5F5
310
F5F5F5F5F5F5F5F5F5F5F5F5F5F5F5F5F5F5F5F5F5F5F5F5F5F5F5F5F5F5F5F5F5F5F5F5F5F5F5F5F5F5F5F5F5F5F5F5F5F5F5F5F5F5F5F5F5F5F5F5F5F5F5F5F5F5F5F5F5F5F5F5F5F5F5F5F5F5F5F5F5F5F5F5F5F5F5F5F5F5F5F5F5F5F5F5F5F5F5F5F5F5F5F5F5F5F5F5F5F5F5F5F5F5F5F5F5F5F5F5F5F5F5F5F5F5F5
310
F5F5F5F5F5E2F5F5F5E2E2E2F5F5E2F5F5F5F5F5F5F5F5F5F5F5F5F5F5F5F5F5F5F5F5F5F5F5F5F5F5F5F5F5F5F5F5F5F5F5F5F5F5F5F5F5F5F5F5F5F5F5F5F5F5F5F5F5F5F5F5F5F5F5F5F5F5F5F5F5F5F5F5F5F5F5F5F5F5F5F5F5F5F5F5F5F5F5F5F5F5F5F5F5F5F5F5F5F5F5F5F5F5F5F5F5F5F5F5F5F5F5F5F5F5F5F5
310
F5F5F5F5F5F5F5F5F5F5F5F5F5F5F5F5F5F5F5F5F5F5F5F5F5F5F5F5F5F5F5F5F5F5F5F5F5F5F5F5F5F5F5F5F5F5F5F5F5F5F5F5F5F5F5F5F5F5E2F5F5F5E2E2E2F5F5F5F5F5F5F5F5F5F5F5F5F5F5F5F5F5F5F5F5F5F5F5F5F5F5F5F5F5F5F5F5F5F5F5F5F5F5F5F5F5F5F5F5F5F5F5F5F5F5F5F5F5F5F5F5F5F5F5F5F5F5
310
F5F5F5F5F5F5F5F5F5F5F5F5F5F5F5F5F5F5F5F5F5F5F5F5F5F5F5F5F5F5F5F5F5F5F5F5F5F5F5F5F5F5F5F5F5F5F5F5F5F5F5F5F5F5F5F5F5F5F5F5F5F5F5F5F5F5F5F5F5F5F5F5F5F5F5F5F5F5F5F5F5F5F5F5F5F5F5F5F5F5F5F5F5F5F5F5F5F5F5F5F5F5F5F5F5F5F5F5F5F5F5F5F5F5F5E2E2E2F5F5F5F5F5F5F5F5F5
310
F5F5F5F5F5F5F5F5F5F5F5F5F5F5F5F5F5F5F5F5F5F5F5F5F5F5F5F5F5F5F5F5F5F5F5F5F5F5F5F5F5F5F5F5F5F5F5F5F5F5F5F5F5F5F5F5F5F5F5F5F5F5F5F5F5F5F5F5F5F5F5F5F5F5F5F5F5F5F5F5F5F5F5F5F5F5F5F5F5F5F5F5F5F5F5F5F5F5F5F5F5F5F5F5F5F5F5F5F5F5F5F5F5F5F5F5F5F5F5F5F5F5F5F5F5F5F5
310
F5F5F5F5F5F5F5F5F5F5F5F5F5F5F5F5F5F5F5F5F5F5F5F5F5F5F5F5F5F5F5F5F5F5F5F5F5F5F5F5F5E2E2E2F5F5F5F5F5F5F5F5F5F5F5F5F5F5F5F5F5F5F5F5F5F5F5F5F5F5F5F5F5F5F5F5F5F5F5F5F5F5F5F5F5F5F5F5F5F5F5F5F5F5F5F5F5F5F5F5F5F5F5F5F5F5F5F5F5F5F5F5F5F5F5F5F5F5F5F5F5F5F5F5F5F5F5
310
F5F5F5F5F5F5F5F5F5F5F5F5F5F5F5F5F5F5F5F5F5F5F5F5F5F5F5F5F5F5F5F5F5F5F5F5F5F5F5F5F5F5F5F5F5F5F5F5F5F5F5F5F5F5F5F5F5F5F5F5F5F5F5F5F5F5F5F5F5F5F5F5F5F5F5F5F5F5F5F5F5F5F5F5F5F5F5F5F5F5F5F5F5F5E2E2E2F5F5F5F5F5F5F5F5F5F5F5F5F5F5F5F5F5F5F5F5F5F5F5F5F5F5F5F5F5F5
310
F5F5F5F5F5F5F5F5F5F5F5F5F5F5F5F5F5F5F5F5F5F5F5F5F5F5F5F5F5F5F5F5F5F5F5F5F5F5F5F5F5F5F5F5F5F5F5F5F5F5F5F5F5F5F5F5F5F5F5F5F5F5F5F5F5F5F5F5F5F5F5F5F5F5F5F5F5F5F5F5F5F5F5F5F5F5F5F5F5F5F5F5F5F5F5F5F5F5F5F5F5F5F5F5F5F5F5F5F5F5F5F5F5F5F5F5F5F5F5F5F5F5F5F5F5F5F5
310
F5F5F5F5F5F5F5F5F5F5F5F5F5F5F5F5F5F5F5F5E2E2E2F5F5F5F5F5F5F5F5F5F5F5F5F5F5F5F5F5F5F5F5F5F5F5F5F5F5F5F5F5F5F5F5F5F5F5F5F5F5F5F5F5F5F5F5F5F5F5F5F5F5F5F5F5F5F5F5F5F5F5F5F5F5F5F5F5F5F5F5F5F5F5F5F5F5F5F5F5F5F5F5F5F5F5F5F5F5F5F5F5F5F5F5F5F5F5F5F5F5F5F5F5F5F5F5
310
F5F5F5F5F5F5F5F5F5F5F5F5F5F5F5F5F5F5F5F5F5F5F5F5F5F5F5F5F5F5F5F5F5F5F5F5F5F5F5F5F5F5F5F5F5F5F5F5F5F5F5F5F5F5F5F5F5F5F5F5F5F5F5F5F5F5F5F5F5F5F5F5F5E2E2E2F5F5F5F5F5F5F5F5F5F5F5F5F5F5F5F5F5F5F5F5F5F5F5F5F5F5F5F5F5F5F5F5F5F5F5F5F5F5F5F5F5F5F5F5F5F5F5F5F5F5F5
310
F5F5F5F5F5F5F5F5F5F5F5F5F5F5F5F5F5F5F5F5F5F5F5F5F5F5F5F5F5F5F5F5F5F5F5F5F5F5F5F5F5F5F5F5F5F5F5F5F5F5F5F5F5F5F5F5F5F5F5F5F5F5F5F5F5F5F5F5F5F5F5F5F5F5F5F5F5F5F5F5F5F5F5F5F5F5F5F5F5F5F5F5F5F5F5F5F5F5F5F5F5F5F5F5F5F5F5F5F5F5F5F5F5F5F5F5F5F5F5F5F5F5F5F5F5F5E2
310
E2E2F5F5F5F5F5F5F5F5F5F5F5F5F5F5F5F5F5F5F5F5F5F5F5F5F5F5F5F5F5F5F5F5F5F5F5F5F5F5F5F5F5F5F5F5F5F5F5F5F5F5F5F5F5F5F5F5F5F5F5F5F5F5F5F5F5F5F5F5F5F5F5F5F5F5F5F5F5F5F5F5F5F5F5F5F5F5F5F5F5F5F5F5F5F5F5F5F5F5F5F5F5F5F5F5F5F5F5F5F5F5F5F5F5F5F5F5F5F5F5F5F5F5F5F5F5
310
F5F5F5F5F5F5F5F5F5F5F5F5F5F5F5F5F5F5F5F5F5F5F5F5F5F5F5F5F5F5F5F5F5F5F5F5F5F5F5F5F5F5F5F5F5F5F5F5F5F5F5F5E2E2E2F5F5F5F5F5F5F5F5F5F5F5F5F5F5F5F5F5F5F5F5F5F5F5F5F5F5F5F5F5F5F5F5F5F5F5F5F5F5F5F5F5F5F5F5F5F5F5F5F5F5F5F5F5F5F5F5F5F5F5F5F5F5F5F5F5F5F5F5F5F5F5F5
310
F5F5F5F5F5F5F5F5F5F5F5F5F5F5F5F5F5F5F5F5F5F5F5F5F5F5F5F5F5F5F5F5F5F5F5F5F5F5F5F5F5F5F5F5F5F5F5F5F5F5F5F5F5F5F5F5F5F5F5F5F5F5F5F5F5F5F5F5F5F5F5F5F5F5F5F5F5F5F5F5F5F5F5F5F5F5F5F5F5F5F5F5F5F5F5F5F5F5F5F5F5F5F5F5F5E2E2E2F5F5F5F5F5F5F5F5F5F5F5F5F5F5F5F5F5F5F5
310
F5F5F5F5F5F5F5F5F5F5F5F5F5F5F5F5F5F5F5F5F5F5F5F5F5F5F5F5F5F5F5F5F5F5F5F5F5F5F5F5F5F5F5F5F5F5F5F5F5F5F5F5F5F5F5F5F5F5F5F5F5F5F5F5F5F5F5F5F5F5F5F5F5F5F5F5F5F5F5F5F5F5F5F5F5F5F5F5F5F5F5F5F5F5F5F5F5F5F5F5F5F5F5F5F5F5F5F5F5F5F5F5F5F5F5F5F5F5F5F5F5F5F5F5F5F5F5
310
F5F5F5F5F5F5F5F5F5F5F5F5F5F5F5F5F5F5F5F5F5F5F5F5F5F5F5F5F5F5F5E2E2E2F5F5E2F5F5F5F5F5F5F5F5F5F5F5F5F5F5F5F5F5F5F5F5F5F5F5F5F5F5F5F5F5F5F5F5F5F5F5F5F5F5F5F5F5F5F5F5F5F5F5F5F5F5F5F5F5F5F5F5F5F5F5F5F5F5F5F5F5F5F5F5F5F5F5F5F5F5F5F5F5F5F5F5F5F5F5F5F5F5F5F5F5F5
310
F5F5F5F5F5F5F5F5F5F5F5F5F5F5F5F5F5F5F5F5F5F5F5F5F5F5F5F5F5F5F5F5F5F5F5F5F5F5F5F5F5F5F5F5F5F5F5F5F5F5F5F5F5F5F5F5F5F5F5F5F5F5F5F5F5F5F5F5F5F5F5F5F5F5F5F5F5F5F5F5E2F5F5F5E2E2E2F5F5E2F5F5F5F5F5F5F5F5F5F5F5F5F5F5F5F5F5F5F5F5F5F5F5F5F5F5F5F5F5F5F5F5F5F5F5F5F5
310
F5F5F5F5F5F5F5F5F5F5F5F5F5F5F5F5F5F5F5F5F5F5F5F5F5F5F5F5F5F5F5F5F5F5F5F5F5F5F5F5F5F5F5F5F5F5F5F5F5F5F5F5F5F5F5F5F5F5F5F5F5F5F5F5F5F5F5F5F5F5F5F5F5F5F5F5F5F5F5F5F5F5F5F5F5F5F5F5F5F5F5F5F5F5F5F5F5F5F5F5F5F5F5F5F5F5F5F5F5F5F5F5F5F5F5F5F5F5F5F5F5F5F5F5F5F5F5
310
F5F5F5F5F5F5E2F5F5F5E2E2E2F5F5E2F5F5F5F5F5F5F5F5F5F5F5F5F5F5F5F5F5F5F5F5F5F5F5F5F5F5F5F5F5F5F5F5F5F5F5F5F5F5F5F5F5F5F5F5F5F5F5F5F5F5F5F5F5F5F5F5F5F5F5F5F5F5F5F5F5F5F5F5F5F5F5F5F5F5F5F5F5F5F5F5F5F5F5F5F5F5F5F5F5F5F5F5F5F5F5F5F5F5F5F5F5F5F5F5F5F5F5F5F5F5F5
310
F5F5F5F5F5F5F5F5F5F5F5F5F5F5F5F5F5F5F5F5F5F5F5F5F5F5F5F5F5F5F5F5F5F5F5F5F5F5F5F5F5F5F5F5F5F5F5F5F5F5F5F5F5F5F5F5F5F5F5E2F5F5F5E2E2E2F5F5E2F5F5F5F5F5F5F5F5F5F5F5F5F5F5F5F5F5F5F5F5F5F5F5F5F5F5F5F5F5F5F5F5F5F5F5F5F5F5F5F5F5F5F5F5F5F5F5F5F5F5F5F5F5F5F5F5F5F5
310
F5F5F5F5F5F5F5F5F5F5F5F5F5F5F5F5F5F5F5F5F5F5F5F5F5F5F5F5F5F5F5F5F5F5F5F5F5F5F5F5F5F5F5F5F5F5F5F5F5F5F5F5F5F5F5F5F5F5F5F5F5F5F5F5F5F5F5F5F5F5F5F5F5F5F5F5F5F5F5F5F5F5F5F5F5F5F5F5F5F5F5F5F5F5F5F5F5F5F5F5F5F5F5F5F5F5F5F5F5F5F5F5E2F5F5F5E2E2E2F5F5E2F5F5F5F5F5
310
F5F5F5F5F5F5F5F5F5F5F5F5F5F5F5F5F5F5F5F5F5F5F5F5F5F5F5F5F5F5F5F5F5F5F5F5F5F5F5F5F5F5F5F5F5F5F5F5F5F5F5F5F5F5F5F5F5F5F5F5F5F5F5F5F5F5F5F5F5F5F5F5F5F5F5F5F5F5F5F5F5F5F5F5F5F5F5F5F5F5F5F5F5F5F5F5F5F5F5F5F5F5F5F5F5F5F5F5F5F5F5F5F5F5F5F5F5F5F5F5F5F5F5F5F5F5F5
310
F5F5F5F5F5F5F5F5F5F5F5F5F5F5F5F5F5F5F5F5F5F5F5F5F5F5F5F5F5F5F5F5F5F5F5F5F5F5E2F5F5F5E2E2E2F5F5E2F5F5F5F5F5F5F5F5F5F5F5F5F5F5F5F5F5F5F5F5F5F5F5F5F5F5F5F5F5F5F5F5F5F5F5F5F5F5F5F5F5F5F5F5F5F5F5F5F5F5F5F5F5F5F5F5F5F5F5F5F5F5F5F5F5F5F5F5F5F5F5F5F5F5F5F5F5F5F5
310
F5F5F5F5F5F5F5F5F5F5F5F5F5F5F5F5F5F5F5F5F5F5F5F5F5F5F5F5F5F5F5F5F5F5F5F5F5F5F5F5F5F5F5F5F5F5F5F5F5F5F5F5F5F5F5F5F5F5F5F5F5F5F5F5F5F5F5F5F5F5F5F5F5F5F5F5F5F5F5F5F5F5F5F5F5F5F5F5F5F5F5E2F5F5F5E2E2E2F5F5E2F5F5F5F5F5F5F5F5F5F5F5F5F5F5F5F5F5F5F5F5F5F5F5F5F5F5
310
F5F5F5F5F5F5F5F5F5F5F5F5F5F5F5F5F5F5F5F5F5F5F5F5F5F5F5F5F5F5F5F5F5F5F5F5F5F5F5F5F5F5F5F5F5F5F5F5F5F5F5F5F5F5F5F5F5F5F5F5F5F5F5F5F5F5F5F5F5F5F5F5F5F5F5F5F5F5F5F5F5F5F5F5F5F5F5F5F5F5F5F5F5F5F5F5F5F5F5F5F5F5F5F5F5F5F5F5F5F5F5F5F5F5F5F5F5F5F5F5F5F5F5F5F5F5F5
310
F5F5F5F5F5F5F5F5F5F5F5F5F5F5F5F5F5E2F5F5F5E2E2E2F5F5E2F5F5F5F5F5F5F5F5F5F5F5F5F5F5F5F5F5F5F5F5F5F5F5F5F5F5F5F5F5F5F5F5F5F5F5F5F5F5F5F5F5F5F5F5F5F5F5F5F5F5F5F5F5F5F5F5F5F5F5F5F5F5F5F5F5F5F5F5F5F5F5F5F5F5F5F5F5F5F5F5F5F5F5F5F5F5F5F5F5F5F5F5F5F5F5F5F5F5F5F5
310
F5F5F5F5F5F5F5F5F5F5F5F5F5F5F5F5F5F5F5F5F5F5F5F5F5F5F5F5F5F5F5F5F5F5F5F5F5F5F5F5F5F5F5F5F5F5F5F5F5F5F5F5F5F5F5F5F5F5F5F5F5F5F5F5F5F5F5F5F5F5E2F5F5F5E2E2E2F5F5E2F5F5F5F5F5F5F5F5F5F5F5F5F5F5F5F5F5F5F5F5F5F5F5F5F5F5F5F5F5F5F5F5F5F5F5F5F5F5F5F5F5F5F5F5F5F5F5
310
F5F5F5F5F5F5F5F5F5F5F5F5F5F5F5F5F5F5F5F5F5F5F5F5F5F5F5F5F5F5F5F5F5F5F5F5F5F5F5F5F5F5F5F5F5F5F5F5F5F5F5F5F5F5F5F5F5F5F5F5F5F5F5F5F5F5F5F5F5F5F5F5F5F5F5F5F5F5F5F5F5F5F5F5F5F5F5F5F5F5F5F5F5F5F5F5F5F5F5F5F5F5F5F5F5F5F5F5F5F5F5F5F5F5F5F5F5F5F5F5F5F5F5E2F5F5F5
310
E2E2E2F5F5E2F5F5F5F5F5F5F5F5F5F5F5F5F5F5F5F5F5F5F5F5F5F5F5F5F5F5F5F5F5F5F5F5F5F5F5F5F5F5F5F5F5F5F5F5F5F5F5F5F5F5F5F5F5F5F5F5F5F5F5F5F5F5F5F5F5F5F5F5F5F5F5F5F5F5F5F5F5F5F5F5F5F5F5F5F5F5F5F5F5F5F5F5F5F5F5F5F5F5F5F5F5F5F5F5F5F5F5F5F5F5F5F5F5F5F5F5F5F5F5F5F5
310
F5F5F5F5F5F5F5F5F5F5F5F5F5F5F5F5F5F5F5F5F5F5F5F5F5F5F5F5F5F5F5F5F5F5F5F5F5F5F5F5F5F5F5F5F5F5F5F5F5E2F5F5F5E2E2E2F5F5E2F5F5F5F5F5F5F5F5F5F5F5F5F5F5F5F5F5F5F5F5F5F5F5F5F5F5F5F5F5F5F5F5F5F5F5F5F5F5F5F5F5F5F5F5F5F5F5F5F5F5F5F5F5F5F5F5F5F5F5F5F5F5F5F5F5F5F5F5
310
F5F5F5F5F5F5F5F5F5F5F5F5F5F5F5F5F5F5F5F5F5F5F5F5F5F5F5F5F5F5F5F5F5F5F5F5F5F5F5F5F5F5F5F5F5F5F5F5F5F5F5F5F5F5F5F5F5F5F5F5F5F5F5F5F5F5F5F5F5F5F5F5F5F5F5F5F5F5F5F5F5F5F5F5F5F5F5F5F5F5F5F5F5F5F5F5F5F5F5F5F5F5E2F5F5F5E2E2E2F5F5E2F5F5F5F5F5F5F5F5F5F5F5F5F5F5F5
310
F5F5F5F5F5F5F5F5F5F5F5F5F5F5F5F5F5F5F5F5F5F5F5F5F5F5F5F5F5F5F5F5F5F5F5F5F5F5F5F5F5F5F5F5F5F5F5F5F5F5F5F5F5F5F5F5F5F5F5F5F5F5F5F5F5F5F5F5F5F5F5F5F5F5F5F5F5F5F5F5F5F5F5F5F5F5F5F5F5F5F5F5F5F5F5F5F5F5F5F5F5F5F5F5F5F5F5F5F5F5F5F5F5F5F5F5F5F5F5F5F5F5F5F5F5F5F5
310
F5F5F5F5F5F5F5F5F5F5F5F5F5F5F5F5F5F5F5F5F5F5F5F5F5F5F5F5E2F5F5F5E2E2E2F5F5E2F5F5F5F5F5F5F5F5F5F5F5F5F5F5F5F5F5F5F5F5F5F5F5F5F5F5F5F5F5F5F5F5F5F5F5F5F5F5F5F5F5F5F5F5F5F5F5F5F5F5F5F5F5F5F5F5F5F5F5F5F5F5F5F5F5F5F5F5F5F5F5F5F5F5F5F5F5F5F5F5F5F5F5F5F5F5F5F5F5
310
F5F5F5F5F5F5F5F5F5F5F5F5F5F5F5F5F5F5F5F5F5F5F5F5F5F5F5F5F5F5F5F5F5F5F5F5F5F5F5F5F5F5F5F5F5F5F5F5F5F5F5F5F5F5F5F5F5F5F5F5F5F5F5F5F5F5F5F5F5F5F5F5F5F5F5F5F5F5F5F5F5E2F5F5F5E2E2E2F5F5E2F5F5F5F5F5F5F5F5F5F5F5F5F5F5F5F5F5F5F5F5F5F5F5F5F5F5F5F5F5F5F5F5F5F5F5F5
310
F5F5F5F5F5F5F5F5F5F5F5F5F5F5F5F5F5F5F5F5F5F5F5F5F5F5F5F5F5F5F5F5F5F5F5F5F5F5F5F5F5F5F5F5F5F5F5F5F5F5F5F5F5F5F5F5F5F5F5F5F5F5F5F5F5F5F5F5F5F5F5F5F5F5F5F5F5F5F5F5F5F5F5F5F5F5F5F5F5F5F5F5F5F5F5F5F5F5F5F5F5F5F5F5F5F5F5F5F5F5F5F5F5F5F5F5F5F5F5F5F5F5F5F5F5F5F5
310
F5F5F5F5F5F5F5E2F5F5F5E2E2E2F5F5E2F5F5F5F5F5F5F5F5F5F5F5F5F5F5F5F5F5F5F5F5F5F5F5F5F5F5F5F5F5F5F5F5F5F5F5F5F5F5F5F5F5F5F5F5F5F5F5F5F5F5F5F5F5F5F5F5F5F5F5F5F5F5F5F5F5F5F5F5F5F5F5F5F5F5F5F5F5F5F5F5F5F5F5F5F5F5F5F5F5F5F5F5F5F5F5F5F5F5F5F5F5F5F5F5F5F5F5F5F5F5
310
F5F5F5F5F5F5F5F5F5F5F5F5F5F5F5F5F5F5F5F5F5F5F5F5F5F5F5F5F5F5F5F5F5F5F5F5F5F5F5F5F5F5F5F5F5F5F5F5F5F5F5F5F5F5F5F5F5F5F5F5E2F5F5F5E2E2E2F5F5E2F5F5F5F5F5F5F5F5F5F5F5F5F5F5F5F5F5F5F5F5F5F5F5F5F5F5F5F5F5F5F5F5F5F5F5F5F5F5F5F5F5F5F5F5F5F5F5F5F5F5F5F5F5F5F5F5F5
310
F5F5F5F5F5F5F5F5F5F5F5F5F5F5F5F5F5F5F5F5F5F5F5F5F5F5F5F5F5F5F5F5F5F5F5F5F5F5F5F5F5F5F5F5F5F5F5F5F5F5F5F5F5F5F5F5F5F5F5F5F5F5F5F5F5F5F5F5F5F5F5F5F5F5F5F5F5F5F5F5F5F5F5F5F5F5F5F5F5F5F5F5F5F5F5F5F5F5F5F5F5F5F5F5F5F5F5F5F5F5F5F5F5E2F5F5F5E2E2E2F5F5F5F5F5F5F5
310
F5F5F5F5F5F5F5F5F5F5F5F5F5F5F5F5F5F5F5F5F5F5F5F5F5F5F5F5F5F5F5F5F5F5F5F5F5F5F5F5F5F5F5F5F5F5F5F5F5F5F5F5F5F5F5F5F5F5F5F5F5F5F5F5F5F5F5F5F5F5F5F5F5F5F5F5F5F5F5F5F5F5F5F5F5F5F5F5F5F5F5F5F5F5F5F5F5F5F5F5F5F5F5F5F5F5F5F5F5F5F5F5F5F5F5F5F5F5F5F5F5F5F5F5F5F5F5
310
F5F5F5F5F5F5F5F5F5F5F5F5F5F5F5F5F5F5F5F5F5F5F5F5F5F5F5F5F5F5F5F5F5F5F5F5F5F5F5F5F5F5F5E2E2E2F5F5F5F5F5F5F5F5F5F5F5F5F5F5F5F5F5F5F5F5F5F5F5F5F5F5F5F5F5F5F5F5F5F5F5F5F5F5F5F5F5F5F5F5F5F5F5F5F5F5F5F5F5F5F5F5F5F5F5F5F5F5F5F5F5F5F5F5F5F5F5F5F5F5F5F5F5F5F5F5F5
310
F5F5F5F5F5F5F5F5F5F5F5F5F5F5F5F5F5F5F5F5F5F5F5F5F5F5F5F5F5F5F5F5F5F5F5F5F5F5F5F5F5F5F5F5F5F5F5F5F5F5F5F5F5F5F5F5F5F5F5F5F5F5F5F5F5F5F5F5F5F5F5F5F5F5F5F5F5F5F5F5F5F5F5F5F5F5F5F5F5F5F5F5F5F5F5F5E2E2E2F5F5F5F5F5F5F5F5F5F5F5F5F5F5F5F5F5F5F5F5F5F5F5F5F5F5F5F5
310
F5F5F5F5F5F5F5F5F5F5F5F5F5F5F5F5F5F5F5F5F5F5F5F5F5F5F5F5F5F5F5F5F5F5F5F5F5F5F5F5F5F5F5F5F5F5F5F5F5F5F5F5F5F5F5F5F5F5F5F5F5F5F5F5F5F5F5F5F5F5F5F5F5F5F5F5F5F5F5F5F5F5F5F5F5F5F5F5F5F5F5F5F5F5F5F5F5F5F5F5F5F5F5F5F5F5F5F5F5F5F5F5F5F5F5F5F5F5F5F5F5F5F5F5F5F5F5
310
F5F5F5F5F5F5F5F5F5F5F5F5F5F5F5F5F5F5F5F5F5F5E2E2E2F5F5F5F5F5F5F5F5F5F5F5F5F5F5F5F5F5F5F5F5F5F5F5F5F5F5F5F5F5F5F5F5F5F5F5F5F5F5F5F5F5F5F5F5F5F5F5F5F5F5F5F5F5F5F5F5F5F5F5F5F5F5F5F5F5F5F5F5F5F5F5F5F5F5F5F5F5F5F5F5F5F5F5F5F5F5F5F5F5F5F5F5F5F5F5F5F5F5F5F5F5F5
310
F5F5F5F5F5F5F5F5F5F5F5F5F5F5F5F5F5F5F5F5F5F5F5F5F5F5F5F5F5F5F5F5F5F5F5F5F5F5F5F5F5F5F5F5F5F5F5F5F5F5F5F5F5F5F5F5F5F5F5F5F5F5F5F5F5F5F5F5F5F5F5F5F5F5F5E2E2E2F5F5F5F5F5F5F5F5F5F5F5F5F5F5F5F5F5F5F5F5F5F5F5F5F5F5F5F5F5F5F5F5F5F5F5F5F5F5F5F5F5F5F5F5F5F5F5F5F5
310
F5F5F5F5F5F5F5F5F5F5F5F5F5F5F5F5F5F5F5F5F5F5F5F5F5F5F5F5F5F5F5F5F5F5F5F5F5F5F5F5F5F5F5F5F5F5F5F5F5F5F5F5F5F5F5F5F5F5F5F5F5F5F5F5F5F5F5F5F5F5F5F5F5F5F5F5F5F5F5F5F5F5F5F5F5F5F5F5F5F5F5F5F5F5F5F5F5F5F5F5F5F5F5F5F5F5F5F5F5F5F5F5F5F5F5F5F5F5F5F5F5F5F5F5F5F5F5
310
F5E2E2E2F5F5F5F5F5F5F5F5F5F5F5F5F5F5F5F5F5F5F5F5F5F5F5F5F5F5F5F5F5F5F5F5F5F5F5F5F5F5F5F5F5F5F5F5F5F5F5F5F5F5F5F5F5F5F5F5F5F5F5F5F5F5F5F5F5F5F5F5F5F5F5F5F5F5F5F5F5F5F5F5F5F5F5F5F5F5F5F5F5F5F5F5F5F5F5F5F5F5F5F5F5F5F5F5F5F5F5F5F5F5F5F5F5F5F5F5F5F5F5F5F5F5F5
310
F5F5F5F5F5F5F5F5F5F5F5F5F5F5F5F5F5F5F5F5F5F5F5F5F5F5F5F5F5F5F5F5F5F5F5F5F5F5F5F5F5F5F5F5F5F5F5F5F5F5F5F5F5F5E2E2E2F5F5F5F5F5F5F5F5F5F5F5F5F5F5F5F5F5F5F5F5F5F5F5F5F5F5F5F5F5F5F5F5F5F5F5F5F5F5F5F5F5F5F5F5F5F5F5F5F5F5F5F5F5F5F5F5F5F5F5F5F5F5F5F5F5F5F5F5F5F5
310
F5F5F5F5F5F5F5F5F5F5F5F5F5F5F5F5F5F5F5F5F5F5F5F5F5F5F5F5F5F5F5F5F5F5F5F5F5F5F5F5F5F5F5F5F5F5F5F5F5F5F5F5F5F5F5F5F5F5F5F5F5F5F5F5F5F5F5F5F5F5F5F5F5F5F5F5F5F5F5F5F5F5F5F5F5F5F5F5F5F5F5F5F5F5F5F5F5F5F5F5F5F5F5F5F5F5F5E2E2E2F5F5F5F5F5F5F5F5F5F5F5F5F5F5F5F5F5
310
F5F5F5F5F5F5F5F5F5F5F5F5F5F5F5F5F5F5F5F5F5F5F5F5F5F5F5F5F5F5F5F5F5F5F5F5F5F5F5F5F5F5F5F5F5F5F5F5F5F5F5F5F5F5F5F5F5F5F5F5F5F5F5F5F5F5F5F5F5F5F5F5F5F5F5F5F5F5F5F5F5F5F5F5F5F5F5F5F5F5F5F5F5F5F5F5F5F5F5F5F5F5F5F5F5F5F5F5F5F5F5F5F5F5F5F5F5F5F5F5F5F5F5F5F5F5F5
310
F5F5F5F5F5F5F5F5F5F5F5F5F5F5F5F5F5F5F5F5F5F5F5F5F5F5F5F5F5F5F5F5F5E2E2E2F5F5F5F5F5F5F5F5F5F5F5F5F5F5F5F5F5F5F5F5F5F5F5F5F5F5F5F5F5F5F5F5F5F5F5F5F5F5F5F5F5F5F5F5F5F5F5F5F5F5F5F5F5F5F5F5F5F5F5F5F5F5F5F5F5F5F5F5F5F5F5F5F5F5F5F5F5F5F5F5F5F5F5F5F5F5F5F5F5F5F5
310
F5F5F5F5F5F5F5F5F5F5F5F5F5F5F5F5F5F5F5F5F5F5F5F5F5F5F5F5F5F5F5F5F5F5F5F5F5F5F5F5F5F5F5F5F5F5F5F5F5F5F5F5F5F5F5F5F5F5F5F5F5F5F5F5F5F5F5F5F5F5F5F5F5F5F5F5F5F5F5F5F5F5F5F5F5F5E2E2E2F5F5F5F5F5F5F5F5F5F5F5F5F5F5F5F5F5F5F5F5F5F5F5F5F5F5F5F5F5F5F5F5F5F5F5F5F5F5
310
F5F5F5F5F5F5F5F5F5F5F5F5F5F5F5F5F5F5F5F5F5F5F5F5F5F5F5F5F5F5F5F5F5F5F5F5F5F5F5F5F5F5F5F5F5F5F5F5F5F5F5F5F5F5F5F5F5F5F5F5F5F5F5F5F5F5F5F5F5F5F5F5F5F5F5F5F5F5F5F5F5F5F5F5F5F5F5F5F5F5F5F5F5F5F5F5F5F5F5F5F5F5F5F5F5F5F5F5F5F5F5F5F5F5F5F5F5F5F5F5F5F5F5F5F5F5F5
310
F5F5F5F5F5F5F5F5F5F5F5F5E2E2E2F5F5E2F5F5F5F5F5F5F5F5F5F5F5F5F5F5F5F5F5F5F5F5F5F5F5F5F5F5F5F5F5F5F5F5F5F5F5F5F5F5F5F5F5F5F5F5F5F5F5F5F5F5F5F5F5F5F5F5F5F5F5F5F5F5F5F5F5F5F5F5F5F5F5F5F5F5F5F5F5F5F5F5F5F5F5F5F5F5F5F5F5F5F5F5F5F5F5F5F5F5F5F5F5F5F5F5F5F5F5F5F5
310
F5F5F5F5F5F5F5F5F5F5F5F5F5F5F5F5F5F5F5F5F5F5F5F5F5F5F5F5F5F5F5F5F5F5F5F5F5F5F5F5F5F5F5F5F5F5F5F5F5F5F5F5F5F5F5F5F5F5F5F5F5E2F5F5F5E2E2E2F5F5E2F5F5F5F5F5F5F5F5F5F5F5F5F5F5F5F5F5F5F5F5F5F5F5F5F5F5F5F5F5F5F5F5F5F5F5F5F5F5F5F5F5F5F5F5F5F5F5F5F5F5F5F5F5F5F5F5
310
F5F5F5F5F5F5F5F5F5F5F5F5F5F5F5F5F5F5F5F5F5F5F5F5F5F5F5F5F5F5F5F5F5F5F5F5F5F5F5F5F5F5F5F5F5F5F5F5F5F5F5F5F5F5F5F5F5F5F5F5F5F5F5F5F5F5F5F5F5F5F5F5F5F5F5F5F5F5F5F5F5F5F5F5F5F5F5F5F5F5F5F5F5F5F5F5F5F5F5F5F5F5F5F5F5F5F5F5F5F5F5F5F5F5E2F5F5F5E2E2E2F5F5E2F5F5F5
310
F5F5F5F5F5F5F5F5F5F5F5F5F5F5F5F5F5F5F5F5F5F5F5F5F5F5F5F5F5F5F5F5F5F5F5F5F5F5F5F5F5F5F5F5F5F5F5F5F5F5F5F5F5F5F5F5F5F5F5F5F5F5F5F5F5F5F5F5F5F5F5F5F5F5F5F5F5F5F5F5F5F5F5F5F5F5F5F5F5F5F5F5F5F5F5F5F5F5F5F5F5F5F5F5F5F5F5F5F5F5F5F5F5F5F5F5F5F5F5F5F5F5F5F5F5F5F5
310
F5F5F5F5F5F5F5F5F5F5F5F5F5F5F5F5F5F5F5F5F5F5F5F5F5F5F5F5F5F5F5F5F5F5F5F5F5F5F5F5E2F5F5F5E2E2E2F5F5E2F5F5F5F5F5F5F5F5F5F5F5F5F5F5F5F5F5F5F5F5F5F5F5F5F5F5F5F5F5F5F5F5F5F5F5F5F5F5F5F5F5F5F5F5F5F5F5F5F5F5F5F5F5F5F5F5F5F5F5F5F5F5F5F5F5F5F5F5F5F5F5F5F5F5F5F5F5
310
F5F5F5F5F5F5F5F5F5F5F5F5F5F5F5F5F5F5F5F5F5F5F5F5F5F5F5F5F5F5F5F5F5F5F5F5F5F5F5F5F5F5F5F5F5F5F5F5F5F5F5F5F5F5F5F5F5F5F5F5F5F5F5F5F5F5F5F5F5F5F5F5F5F5F5F5F5F5F5F5F5F5F5F5F5F5F5F5F5F5F5F5F5E2F5F5F5E2E2E2F5F5E2F5F5F5F5F5F5F5F5F5F5F5F5F5F5F5F5F5F5F5F5F5F5F5F5
310
F5F5F5F5F5F5F5F5F5F5F5F5F5F5F5F5F5F5F5F5F5F5F5F5F5F5F5F5F5F5F5F5F5F5F5F5F5F5F5F5F5F5F5F5F5F5F5F5F5F5F5F5F5F5F5F5F5F5F5F5F5F5F5F5F5F5F5F5F5F5F5F5F5F5F5F5F5F5F5F5F5F5F5F5F5F5F5F5F5F5F5F5F5F5F5F5F5F5F5F5F5F5F5F5F5F5F5F5F5F5F5F5F5F5F5F5F5F5F5F5F5F5F5F5F5F5F5
310
F5F5F5F5F5F5F5F5F5F5F5F5F5F5F5F5F5F5F5E2F5F5F5E2E2E2F5F5E2F5F5F5F5F5F5F5F5F5F5F5F5F5F5F5F5F5F5F5F5F5F5F5F5F5F5F5F5F5F5F5F5F5F5F5F5F5F5F5F5F5F5F5F5F5F5F5F5F5F5F5F5F5F5F5F5F5F5F5F5F5F5F5F5F5F5F5F5F5F5F5F5F5F5F5F5F5F5F5F5F5F5F5F5F5F5F5F5F5F5F5F5F5F5F5F5F5F5
310
F5F5F5F5F5F5F5F5F5F5F5F5F5F5F5F5F5F5F5F5F5F5F5F5F5F5F5F5F5F5F5F5F5F5F5F5F5F5F5F5F5F5F5F5F5F5F5F5F5F5F5F5F5F5F5F5F5F5F5F5F5F5F5F5F5F5F5F5F5F5F5F5E2F5F5F5E2E2E2F5F5E2F5F5F5F5F5F5F5F5F5F5F5F5F5F5F5F5F5F5F5F5F5F5F5F5F5F5F5F5F5F5F5F5F5F5F5F5F5F5F5F5F5F5F5F5F5
310
F5F5F5F5F5F5F5F5F5F5F5F5F5F5F5F5F5F5F5F5F5F5F5F5F5F5F5F5F5F5F5F5F5F5F5F5F5F5F5F5F5F5F5F5F5F5F5F5F5F5F5F5F5F5F5F5F5F5F5F5F5F5F5F5F5F5F5F5F5F5F5F5F5F5F5F5F5F5F5F5F5F5F5F5F5F5F5F5F5F5F5F5F5F5F5F5F5F5F5F5F5F5F5F5F5F5F5F5F5F5F5F5F5F5F5F5F5F5F5F5F5F5F5F5F5E2F5
310
F5F5E2E2E2F5F5E2F5F5F5F5F5F5F5F5F5F5F5F5F5F5F5F5F5F5F5F5F5F5F5F5F5F5F5F5F5F5F5F5F5F5F5F5F5F5F5F5F5F5F5F5F5F5F5F5F5F5F5F5F5F5F5F5F5F5F5F5F5F5F5F5F5F5F5F5F5F5F5F5F5F5F5F5F5F5F5F5F5F5F5F5F5F5F5F5F5F5F5F5F5F5F5F5F5F5F5F5F5F5F5F5F5F5F5F5F5F5F5F5F5F5F5F5F5F5F5
310
F5F5F5F5F5F5F5F5F5F5F5F5F5F5F5F5F5F5F5F5F5F5F5F5F5F5F5F5F5F5F5F5F5F5F5F5F5F5F5F5F5F5F5F5F5F5F5F5F5F5F5E2F5F5F5E2E2E2F5F5E2F5F5F5F5F5F5F5F5F5F5F5F5F5F5F5F5F5F5F5F5F5F5F5F5F5F5F5F5F5F5F5F5F5F5F5F5F5F5F5F5F5F5F5F5F5F5F5F5F5F5F5F5F5F5F5F5F5F5F5F5F5F5F5F5F5F5
310
F5F5F5F5F5F5F5F5F5F5F5F5F5F5F5F5F5F5F5F5F5F5F5F5F5F5F5F5F5F5F5F5F5F5F5F5F5F5F5F5F5F5F5F5F5F5F5F5F5F5F5F5F5F5F5F5F5F5F5F5F5F5F5F5F5F5F5F5F5F5F5F5F5F5F5F5F5F5F5F5F5F5F5F5F5F5F5F5F5F5F5F5F5F5F5F5F5F5F5F5F5F5F5F5E2F5F5F5E2E2E2F5F5E2F5F5F5F5F5F5F5F5F5F5F5F5F5
310
F5F5F5F5F5F5F5F5F5F5F5F5F5F5F5F5F5F5F5F5F5F5F5F5F5F5F5F5F5F5F5F5F5F5F5F5F5F5F5F5F5F5F5F5F5F5F5F5F5F5F5F5F5F5F5F5F5F5F5F5F5F5F5F5F5F5F5F5F5F5F5F5F5F5F5F5F5F5F5F5F5F5F5F5F5F5F5F5F5F5F5F5F5F5F5F5F5F5F5F5F5F5F5F5F5F5F5F5F5F5F5F5F5F5F5F5F5F5F5F5F5F5F5F5F5F5F5
310
F5F5F5F5F5F5F5F5F5F5F5F5F5F5F5F5F5F5F5F5F5F5F5F5F5F5F5F5F5F5E2F5F5F5E2E2E2F5F5E2F5F5F5F5F5F5F5F5F5F5F5F5F5F5F5F5F5F5F5F5F5F5F5F5F5F5F5F5F5F5F5F5F5F5F5F5F5F5F5F5F5F5F5F5F5F5F5F5F5F5F5F5F5F5F5F5F5F5F5F5F5F5F5F5F5F5F5F5F5F5F5F5F5F5F5F5F5F5F5F5F5F5F5F5F5F5F5
310
F5F5F5F5F5F5F5F5F5F5F5F5F5F5F5F5F5F5F5F5F5F5F5F5F5F5F5F5F5F5F5F5F5F5F5F5F5F5F5F5F5F5F5F5F5F5F5F5F5F5F5F5F5F5F5F5F5F5F5F5F5F5F5F5F5F5F5F5F5F5F5F5F5F5F5F5F5F5F5F5F5F5F5E2F5F5F5E2E2E2F5F5E2F5F5F5F5F5F5F5F5F5F5F5F5F5F5F5F5F5F5F5F5F5F5F5F5F5F5F5F5F5F5F5F5F5F5
310
F5F5F5F5F5F5F5F5F5F5F5F5F5F5F5F5F5F5F5F5F5F5F5F5F5F5F5F5F5F5F5F5F5F5F5F5F5F5F5F5F5F5F5F5F5F5F5F5F5F5F5F5F5F5F5F5F5F5F5F5F5F5F5F5F5F5F5F5F5F5F5F5F5F5F5F5F5F5F5F5F5F5F5F5F5F5F5F5F5F5F5F5F5F5F5F5F5F5F5F5F5F5F5F5F5F5F5F5F5F5F5F5F5F5F5F5F5F5F5F5F5F5F5F5F5F5F5
310
F5F5F5F5F5F5F5F5F5E2F5F5F5E2E2E2F5F5E2F5F5F5F5F5F5F5F5F5F5F5F5F5F5F5F5F5F5F5F5F5F5F5F5F5F5F5F5F5F5F5F5F5F5F5F5F5F5F5F5F5F5F5F5F5F5F5F5F5F5F5F5F5F5F5F5F5F5F5F5F5F5F5F5F5F5F5F5F5F5F5F5F5F5F5F5F5F5F5F5F5F5F5F5F5F5F5F5F5F5F5F5F5F5F5F5F5F5F5F5F5F5F5F5F5F5F5F5
310
F5F5F5F5F5F5F5F5F5F5F5F5F5F5F5F5F5F5F5F5F5F5F5F5F5F5F5F5F5F5F5F5F5F5F5F5F5F5F5F5F5F5F5F5F5F5F5F5F5F5F5F5F5F5F5F5F5F5F5F5F5F5E2F5F5F5E2E2E2F5F5E2F5F5F5F5F5F5F5F5F5F5F5F5F5F5F5F5F5F5F5F5F5F5F5F5F5F5F5F5F5F5F5F5F5F5F5F5F5F5F5F5F5F5F5F5F5F5F5F5F5F5F5F5F5F5F5
310
F5F5F5F5F5F5F5F5F5F5F5F5F5F5F5F5F5F5F5F5F5F5F5F5F5F5F5F5F5F5F5F5F5F5F5F5F5F5F5F5F5F5F5F5F5F5F5F5F5F5F5F5F5F5F5F5F5F5F5F5F5F5F5F5F5F5F5F5F5F5F5F5F5F5F5F5F5F5F5F5F5F5F5F5F5F5F5F5F5F5F5F5F5F5F5F5F5F5F5F5F5F5F5F5F5F5F5F5F5F5F5F5F5F5F5E2F5F5F5E2E2E2F5F5E2F5F5
310
F5F5F5F5F5F5F5F5F5F5F5F5F5F5F5F5F5F5F5F5F5F5F5F5F5F5F5F5F5F5F5F5F5F5F5F5F5F5F5F5F5F5F5F5F5F5F5F5F5F5F5F5F5F5F5F5F5F5F5F5F5F5F5F5F5F5F5F5F5F5F5F5F5F5F5F5F5F5F5F5F5F5F5F5F5F5F5F5F5F5F5F5F5F5F5F5F5F5F5F5F5F5F5F5F5F5F5F5F5F5F5F5F5F5F5F5F5F5F5F5F5F5F5F5F5F5F5
310
F5F5F5F5F5F5F5F5F5F5F5F5F5F5F5F5F5F5F5F5F5F5F5F5F5F5F5F5F5F5F5F5F5F5F5F5F5F5F5F5F5E2F5F5F5E2E2E2F5F5E2F5F5F5F5F5F5F5F5F5F5F5F5F5F5F5F5F5F5F5F5F5F5F5F5F5F5F5F5F5F5F5F5F5F5F5F5F5F5F5F5F5F5F5F5F5F5F5F5F5F5F5F5F5F5F5F5F5F5F5F5F5F5F5F5F5F5F5F5F5F5F5F5F5F5F5F5
310
F5F5F5F5F5F5F5F5F5F5F5F5F5F5F5F5F5F5F5F5F5F5F5F5F5F5F5F5F5F5F5F5F5F5F5F5F5F5F5F5F5F5F5F5F5F5F5F5F5F5F5F5F5F5F5F5F5F5F5F5F5F5F5F5F5F5F5F5F5F5F5F5F5F5F5F5F5F5F5F5F5F5F5F5F5F5F5F5F5F5F5F5F5F5E2F5F5F5E2E2E2F5F5F5F5F5F5F5F5F5F5F5F5F5F5F5F5F5F5F5F5F5F5F5F5F5F5
310
F5F5F5F5F5F5F5F5F5F5F5F5F5F5F5F5F5F5F5F5F5F5F5F5F5F5F5F5F5F5F5F5F5F5F5F5F5F5F5F5F5F5F5F5F5F5F5F5F5F5F5F5F5F5F5F5F5F5F5F5F5F5F5F5F5F5F5F5F5F5F5F5F5F5F5F5F5F5F5F5F5F5F5F5F5F5F5F5F5F5F5F5F5F5F5F5F5F5F5F5F5F5F5F5F5F5F5F5F5F5F5F5F5F5F5F5F5F5F5F5F5F5F5F5F5F5F5
310
F5F5F5F5F5F5F5F5F5F5F5F5F5F5F5F5F5F5F5F5F5F5F5F5E2E2E2F5F5F5F5F5F5F5F5F5F5F5F5F5F5F5F5F5F5F5F5F5F5F5F5F5F5F5F5F5F5F5F5F5F5F5F5F5F5F5F5F5F5F5F5F5F5F5F5F5F5F5F5F5F5F5F5F5F5F5F5F5F5F5F5F5F5F5F5F5F5F5F5F5F5F5F5F5F5F5F5F5F5F5F5F5F5F5F5F5F5F5F5F5F5F5F5F5F5F5F5
310
F5F5F5F5F5F5F5F5F5F5F5F5F5F5F5F5F5F5F5F5F5F5F5F5F5F5F5F5F5F5F5F5F5F5F5F5F5F5F5F5F5F5F5F5F5F5F5F5F5F5F5F5F5F5F5F5F5F5F5F5F5F5F5F5F5F5F5F5F5F5F5F5F5F5F5F5F5E2E2E2F5F5F5F5F5F5F5F5F5F5F5F5F5F5F5F5F5F5F5F5F5F5F5F5F5F5F5F5F5F5F5F5F5F5F5F5F5F5F5F5F5F5F5F5F5F5F5
310
F5F5F5F5F5F5F5F5F5F5F5F5F5F5F5F5F5F5F5F5F5F5F5F5F5F5F5F5F5F5F5F5F5F5F5F5F5F5F5F5F5F5F5F5F5F5F5F5F5F5F5F5F5F5F5F5F5F5F5F5F5F5F5F5F5F5F5F5F5F5F5F5F5F5F5F5F5F5F5F5F5F5F5F5F5F5F5F5F5F5F5F5F5F5F5F5F5F5F5F5F5F5F5F5F5F5F5F5F5F5F5F5F5F5F5F5F5F5F5F5F5F5F5F5F5F5F5
310
F5F5F5E2E2E2F5F5F5F5F5F5F5F5F5F5F5F5F5F5F5F5F5F5F5F5F5F5F5F5F5F5F5F5F5F5F5F5F5F5F5F5F5F5F5F5F5F5F5F5F5F5F5F5F5F5F5F5F5F5F5F5F5F5F5F5F5F5F5F5F5F5F5F5F5F5F5F5F5F5F5F5F5F5F5F5F5F5F5F5F5F5F5F5F5F5F5F5F5F5F5F5F5F5F5F5F5F5F5F5F5F5F5F5F5F5F5F5F5F5F5F5F5F5F5F5F5
310
F5F5F5F5F5F5F5F5F5F5F5F5F5F5F5F5F5F5F5F5F5F5F5F5F5F5F5F5F5F5F5F5F5F5F5F5F5F5F5F5F5F5F5F5F5F5F5F5F5F5F5F5F5F5F5F5E2E2E2F5F5F5F5F5F5F5F5F5F5F5F5F5F5F5F5F5F5F5F5F5F5F5F5F5F5F5F5F5F5F5F5F5F5F5F5F5F5F5F5F5F5F5F5F5F5F5F5F5F5F5F5F5F5F5F5F5F5F5F5F5F5F5F5F5F5F5F5
310
F5F5F5F5F5F5F5F5F5F5F5F5F5F5F5F5F5F5F5F5F5F5F5F5F5F5F5F5F5F5F5F5F5F5F5F5F5F5F5F5F5F5F5F5F5F5F5F5F5F5F5F5F5F5F5F5F5F5F5F5F5F5F5F5F5F5F5F5F5F5F5F5F5F5F5F5F5F5F5F5F5F5F5F5F5F5F5F5F5F5F5F5F5F5F5F5F5F5F5F5F5F5F5F5F5F5F5F5F5E2E2E2F5F5F5F5F5F5F5F5F5F5F5F5F5F5F5
310
F5F5F5F5F5F5F5F5F5F5F5F5F5F5F5F5F5F5F5F5F5F5F5F5F5F5F5F5F5F5F5F5F5F5F5F5F5F5F5F5F5F5F5F5F5F5F5F5F5F5F5F5F5F5F5F5F5F5F5F5F5F5F5F5F5F5F5F5F5F5F5F5F5F5F5F5F5F5F5F5F5F5F5F5F5F5F5F5F5F5F5F5F5F5F5F5F5F5F5F5F5F5F5F5F5F5F5F5F5F5F5F5F5F5F5F5F5F5F5F5F5F5F5F5F5F5F5
310
F5F5F5F5F5F5F5F5F5F5F5F5F5F5F5F5F5F5F5F5F5F5F5F5F5F5F5F5F5F5F5F5F5F5F5E2E2E2F5F5F5F5F5F5F5F5F5F5F5F5F5F5F5F5F5F5F5F5F5F5F5F5F5F5F5F5F5F5F5F5F5F5F5F5F5F5F5F5F5F5F5F5F5F5F5F5F5F5F5F5F5F5F5F5F5F5F5F5F5F5F5F5F5F5F5F5F5F5F5F5F5F5F5F5F5F5F5F5F5F5F5F5F5F5F5F5F5
310
F5F5F5F5F5F5F5F5F5F5F5F5F5F5F5F5F5F5F5F5F5F5F5F5F5F5F5F5F5F5F5F5F5F5F5F5F5F5F5F5F5F5F5F5F5F5F5F5F5F5F5F5F5F5F5F5F5F5F5F5F5F5F5F5F5F5F5F5F5F5F5F5F5F5F5F5F5F5F5F5F5F5F5F5F5F5F5F5E2E2E2F5F5F5F5F5F5F5F5F5F5F5F5F5F5F5F5F5F5F5F5F5F5F5F5F5F5F5F5F5F5F5F5F5F5F5F5
310
F5F5F5F5F5F5F5F5F5F5F5F5F5F5F5F5F5F5F5F5F5F5F5F5F5F5F5F5F5F5F5F5F5F5F5F5F5F5F5F5F5F5F5F5F5F5F5F5F5F5F5F5F5F5F5F5F5F5F5F5F5F5F5F5F5F5F5F5F5F5F5F5F5F5F5F5F5F5F5F5F5F5F5F5F5F5F5F5F5F5F5F5F5F5F5F5F5F5F5F5F5F5F5F5F5F5F5F5F5F5F5F5F5F5F5F5F5F5F5F5F5F5F5F5F5F5F5
310
F5F5F5F5F5F5F5F5F5F5F5F5F5F5E2E2E2F5F5F5F5F5F5F5F5F5F5F5F5F5F5F5F5F5F5F5F5F5F5F5F5F5F5F5F5F5F5F5F5F5F5F5F5F5F5F5F5F5F5F5F5F5F5F5F5F5F5F5F5F5F5F5F5F5F5F5F5F5F5F5F5F5F5F5F5F5F5F5F5F5F5F5F5F5F5F5F5F5F5F5F5F5F5F5F5F5F5F5F5F5F5F5F5F5F5F5F5F5F5F5F5F5F5F5F5F5F5
310
F5F5F5F5F5F5F5F5F5F5F5F5F5F5F5F5F5F5F5F5F5F5F5F5F5F5F5F5F5F5F5F5F5F5F5F5F5F5F5F5F5F5F5F5F5F5F5F5F5F5F5F5F5F5F5F5F5F5F5F5F5F5F5F5F5F5F5E2E2E2F5F5E2F5F5F5F5F5F5F5F5F5F5F5F5F5F5F5F5F5F5F5F5F5F5F5F5F5F5F5F5F5F5F5F5F5F5F5F5F5F5F5F5F5F5F5F5F5F5F5F5F5F5F5F5F5F5
310
F5F5F5F5F5F5F5F5F5F5F5F5F5F5F5F5F5F5F5F5F5F5F5F5F5F5F5F5F5F5F5F5F5F5F5F5F5F5F5F5F5F5F5F5F5F5F5F5F5F5F5F5F5F5F5F5F5F5F5F5F5F5F5F5F5F5F5F5F5F5F5F5F5F5F5F5F5F5F5F5F5F5F5F5F5F5F5F5F5F5F5F5F5F5F5F5F5F5F5F5F5F5F5F5F5F5F5F5F5F5F5F5F5F5F5F5E2F5F5F5E2E2E2F5F5E2F5
310
F5F5F5F5F5F5F5F5F5F5F5F5F5F5F5F5F5F5F5F5F5F5F5F5F5F5F5F5F5F5F5F5F5F5F5F5F5F5F5F5F5F5F5F5F5F5F5F5F5F5F5F5F5F5F5F5F5F5F5F5F5F5F5F5F5F5F5F5F5F5F5F5F5F5F5F5F5F5F5F5F5F5F5F5F5F5F5F5F5F5F5F5F5F5F5F5F5F5F5F5F5F5F5F5F5F5F5F5F5F5F5F5F5F5F5F5F5F5F5F5F5F5F5F5F5F5F5
310
F5F5F5F5F5F5F5F5F5F5F5F5F5F5F5F5F5F5F5F5F5F5F5F5F5F5F5F5F5F5F5F5F5F5F5F5F5F5F5F5F5F5E2F5F5F5E2E2E2F5F5E2F5F5F5F5F5F5F5F5F5F5F5F5F5F5F5F5F5F5F5F5F5F5F5F5F5F5F5F5F5F5F5F5F5F5F5F5F5F5F5F5F5F5F5F5F5F5F5F5F5F5F5F5F5F5F5F5F5F5F5F5F5F5F5F5F5F5F5F5F5F5F5F5F5F5F5
310
F5F5F5F5F5F5F5F5F5F5F5F5F5F5F5F5F5F5F5F5F5F5F5F5F5F5F5F5F5F5F5F5F5F5F5F5F5F5F5F5F5F5F5F5F5F5F5F5F5F5F5F5F5F5F5F5F5F5F5F5F5F5F5F5F5F5F5F5F5F5F5F5F5F5F5F5F5F5F5F5F5F5F5F5F5F5F5F5F5F5F5F5F5F5F5E2F5F5F5E2E2E2F5F5E2F5F5F5F5F5F5F5F5F5F5F5F5F5F5F5F5F5F5F5F5F5F5
310
F5F5F5F5F5F5F5F5F5F5F5F5F5F5F5F5F5F5F5F5F5F5F5F5F5F5F5F5F5F5F5F5F5F5F5F5F5F5F5F5F5F5F5F5F5F5F5F5F5F5F5F5F5F5F5F5F5F5F5F5F5F5F5F5F5F5F5F5F5F5F5F5F5F5F5F5F5F5F5F5F5F5F5F5F5F5F5F5F5F5F5F5F5F5F5F5F5F5F5F5F5F5F5F5F5F5F5F5F5F5F5F5F5F5F5F5F5F5F5F5F5F5F5F5F5F5F5
310
F5F5F5F5F5F5F5F5F5F5F5F5F5F5F5F5F5F5F5F5F5E2F5F5F5E2E2E2F5F5E2F5F5F5F5F5F5F5F5F5F5F5F5F5F5F5F5F5F5F5F5F5F5F5F5F5F5F5F5F5F5F5F5F5F5F5F5F5F5F5F5F5F5F5F5F5F5F5F5F5F5F5F5F5F5F5F5F5F5F5F5F5F5F5F5F5F5F5F5F5F5F5F5F5F5F5F5F5F5F5F5F5F5F5F5F5F5F5F5F5F5F5F5F5F5F5F5
310
F5F5F5F5F5F5F5F5F5F5F5F5F5F5F5F5F5F5F5F5F5F5F5F5F5F5F5F5F5F5F5F5F5F5F5F5F5F5F5F5F5F5F5F5F5F5F5F5F5F5F5F5F5F5F5F5F5F5F5F5F5F5F5F5F5F5F5F5F5F5F5F5F5F5E2F5F5F5E2E2E2F5F5E2F5F5F5F5F5F5F5F5F5F5F5F5F5F5F5F5F5F5F5F5F5F5F5F5F5F5F5F5F5F5F5F5F5F5F5F5F5F5F5F5F5F5F5
310
F5F5F5F5F5F5F5F5F5F5F5F5F5F5F5F5F5F5F5F5F5F5F5F5F5F5F5F5F5F5F5F5F5F5F5F5F5F5F5F5F5F5F5F5F5F5F5F5F5F5F5F5F5F5F5F5F5F5F5F5F5F5F5F5F5F5F5F5F5F5F5F5F5F5F5F5F5F5F5F5F5F5F5F5F5F5F5F5F5F5F5F5F5F5F5F5F5F5F5F5F5F5F5F5F5F5F5F5F5F5F5F5F5F5F5F5F5F5F5F5F5F5F5F5F5F5F5
310
E2F5F5F5E2E2E2F5F5E2F5F5F5F5F5F5F5F5F5F5F5F5F5F5F5F5F5F5F5F5F5F5F5F5F5F5F5F5F5F5F5F5F5F5F5F5F5F5F5F5F5F5F5F5F5F5F5F5F5F5F5F5F5F5F5F5F5F5F5F5F5F5F5F5F5F5F5F5F5F5F5F5F5F5F5F5F5F5F5F5F5F5F5F5F5F5F5F5F5F5F5F5F5F5F5F5F5F5F5F5F5F5F5F5F5F5F5F5F5F5F5F5F5F5F5F5F5
310
F5F5F5F5F5F5F5F5F5F5F5F5F5F5F5F5F5F5F5F5F5F5F5F5F5F5F5F5F5F5F5F5F5F5F5F5F5F5F5F5F5F5F5F5F5F5F5F5F5F5F5F5F5E2F5F5F5E2E2E2F5F5E2F5F5F5F5F5F5F5F5F5F5F5F5F5F5F5F5F5F5F5F5F5F5F5F5F5F5F5F5F5F5F5F5F5F5F5F5F5F5F5F5F5F5F5F5F5F5F5F5F5F5F5F5F5F5F5F5F5F5F5F5F5F5F5F5
310
F5F5F5F5F5F5F5F5F5F5F5F5F5F5F5F5F5F5F5F5F5F5F5F5F5F5F5F5F5F5F5F5F5F5F5F5F5F5F5F5F5F5F5F5F5F5F5F5F5F5F5F5F5F5F5F5F5F5F5F5F5F5F5F5F5F5F5F5F5F5F5F5F5F5F5F5F5F5F5F5F5F5F5F5F5F5F5F5F5F5F5F5F5F5F5F5F5F5F5F5F5F5F5F5F5F5E2F5F5F5E2E2E2F5F5E2E2E2E2E2E2E2E2F5F5F5F5
310
F5F5F5F5F5E2E2E2E2E2E2E2E2E2E2E2E2E2E2E2E2F5F5F5F5F5F5F5F5F5E2E2E2E2E2E2E2E2E2E2E2E2E2E2E2F5F5F5F5F5F5F5F5F5E2E2E2E2E2E2E2E2E2E2E2E2E2E2E2E2F5F5F5F5F5F5F5F5E2E2E2E2E2E2E2E2E2E2E2E2E2E2E2E2F5F5F5F5F5F5F5F5F5E2E2E2E2E2E2E2E2E2E2E2E2E2E2E2F5F5F5F5F5F5F5F5F5
310
E2E2E2E2E2E2E2E2E2E2E2E2E2E2E2E2F5F5F5F5F5F5F5F5F5E2E2E2E2E2E2E2E2F5F5F5E2E2E2F5F5F5F5F5F5F5F5F5F5F5F5F5F5F5F5F5F5F5F5F5F5F5F5F5F5F5F5F5F5F5F5F5F5F5F5F5F5F5F5F5F5F5F5F5F5F5F5F5F5F5F5F5F5F5F5F5F5F5F5F5F5F5F5F5F5F5F5F5F5F5F5F5F5F5F5F5F5F5F5F5F5F5F5F5F5F5F5
310
F5F5F5F5F5F5F5F5F5F5F5F5F5F5F5F5F5F5F5F5F5F5F5F5F5F5F5F5F5F5F5F5F5F5F5F5F5F5F5F5F5F5F5F5F5F5F5F5F5F5F5F5F5F5F5F5F5F5F5F5F5F5F5F5F5F5F5F5F5F5F5F5F5F5F5F5F5F5F5F5F5F5F5F5F5F5F5F5F5E2E2E2F5F5F5F5F5F5F5F5F5F5F5F5F5F5F5F5F5F5F5F5F5F5F5F5F5F5F5F5F5F5F5F5F5F5F5
310
F5F5F5F5F5F5F5F5F5F5F5F5F5F5F5F5F5F5F5F5F5F5F5F5F5F5F5F5F5F5F5F5F5F5F5F5F5F5F5F5F5F5F5F5F5F5F5F5F5F5F5F5F5F5F5F5F5F5F5F5F5F5F5F5F5F5F5F5F5F5F5F5F5F5F5F5F5F5F5F5F5F5F5F5F5F5F5F5F5F5F5F5F5F5F5F5F5F5F5F5F5F5F5F5F5F5F5F5F5F5F5F5F5F5F5F5F5F5F5F5F5F5F5F5F5F5F5
310
F5F5F5F5F5F5F5F5F5F5F5F5F5F5F5E2E2E2F5F5F5F5F5F5F5F5F5F5F5F5F5F5F5F5F5F5F5F5F5F5F5F5F5F5F5F5F5F5F5F5F5F5F5F5F5F5F5F5F5F5F5F5F5F5F5F5F5F5F5F5F5F5F5F5F5F5F5F5F5F5F5F5F5F5F5F5F5F5F5F5F5F5F5F5F5F5F5F5F5F5F5F5F5F5F5F5F5F5F5F5F5F5F5F5F5F5F5F5F5F5F5F5F5F5F5F5F5
310
F5F5F5F5F5F5F5F5F5F5F5F5F5F5F5F5F5F5F5F5F5F5F5F5F5F5F5F5F5F5F5F5F5F5F5F5F5F5F5F5F5F5F5F5F5F5F5F5F5F5F5F5F5F5F5F5F5F5F5F5F5F5F5F5F5F5F5F5E2EFE2F5F5F5F5F5F5F5F5F5F5F5F5F5F5F5F5F5F5F5F5F5F5F5F5F5F5F5F5F5F5F5F5F5F5F5F5F5F5F5F5F5F5F5F5F5F5F5F5F5F5F5F5F5F5F5F5
310
F5F5F5F5F5F5F5F5F5F5F5F5F5F5F5F5F5F5F5F5F5F5F5F5F5F5F5F5F5F5F5F5F5F5F5F5F5F5F5F5F5F5F5F5F5F5F5F5F5F5F5F5F5F5F5F5F5F5F5F5F5F5F5F5F5F5F5F5F5F5F5F5F5F5F5F5F5F5F5F5F5F5F5F5F5F5F5F5F5F5F5F5F5F5F5F5F5F5F5F5F5F5F5F5F5F5F5F5F5F5F5F5F5F5F5F5F5F5F5F5F5E2EFE2E2E2E2
310
E2E2E2E2E2E2E2E2E2E2E2E2E2E2E2E2E2E2E2E2E2E2E2E2E2E2E2E2E2E2E2E2E2E2E2E2E2E2E2E2E2E2E2E2E2E2E2E2E2E2E2E2E2E2E2E2E2E2E2E2E2E2E2E2E2E2E2E2E2E2E2E2E2E2E2E2E2E2E2E2E2E2E2E2E2E2E2E2E2E2E2E2E2E2E2E2E2E2E2E2E2E2E2E2E2E2E2E2E2E2E2E2E2E2E2E2E2E2E2E2E2E2E2E2E2E2E2
310
E2E2E2E2E2E2E2E2E2E2E2E2E2E2E2E2E2E2E2E2E2E2E2E2E2E2E2E2E2E2E2E2E2E2E2E2E2E2E2E2E2E2E2E2E2E2E2E2EF
  0
XRECORD
  5
1656
102
{ACAD_REACTORS
330
1654
102
}
330
1654
100
AcDbXrecord
280
     1
270
     1
271
     1
  0
XRECORD
  5
1655
102
{ACAD_REACTORS
330
1654
102
}
330
1654
100
AcDbXrecord
280
     1
270
     1
271
     1
  0
XRECORD
  5
1659
102
{ACAD_REACTORS
330
1654
102
}
330
1654
100
AcDbXrecord
280
     1
270
     1
271
     1
  0
XRECORD
  5
1658
102
{ACAD_REACTORS
330
1654
102
}
330
1654
100
AcDbXrecord
280
     1
270
     1
271
     1
  0
XRECORD
  5
165A
102
{ACAD_REACTORS
330
1654
102
}
330
1654
100
AcDbXrecord
280
     1
270
     1
271
     1
  0
XRECORD
  5
1657
102
{ACAD_REACTORS
330
1654
102
}
330
1654
100
AcDbXrecord
280
     1
270
     1
271
     1
  0
XRECORD
  5
164E
102
{ACAD_REACTORS
330
164C
102
}
330
164C
100
AcDbXrecord
280
     1
270
     1
271
     1
  0
XRECORD
  5
164D
102
{ACAD_REACTORS
330
164C
102
}
330
164C
100
AcDbXrecord
280
     1
270
     1
271
     1
  0
XRECORD
  5
1651
102
{ACAD_REACTORS
330
164C
102
}
330
164C
100
AcDbXrecord
280
     1
270
     1
271
     1
  0
XRECORD
  5
1650
102
{ACAD_REACTORS
330
164C
102
}
330
164C
100
AcDbXrecord
280
     1
270
     1
271
     1
  0
XRECORD
  5
1652
102
{ACAD_REACTORS
330
164C
102
}
330
164C
100
AcDbXrecord
280
     1
270
     1
271
     1
  0
XRECORD
  5
164F
102
{ACAD_REACTORS
330
164C
102
}
330
164C
100
AcDbXrecord
280
     1
270
     1
271
     1
  0
XRECORD
  5
165E
102
{ACAD_REACTORS
330
165C
102
}
330
165C
100
AcDbXrecord
280
     1
270
     1
271
     1
  0
XRECORD
  5
165D
102
{ACAD_REACTORS
330
165C
102
}
330
165C
100
AcDbXrecord
280
     1
270
     1
271
     1
  0
XRECORD
  5
1661
102
{ACAD_REACTORS
330
165C
102
}
330
165C
100
AcDbXrecord
280
     1
270
     1
271
     1
  0
XRECORD
  5
1660
102
{ACAD_REACTORS
330
165C
102
}
330
165C
100
AcDbXrecord
280
     1
270
     1
271
     1
  0
XRECORD
  5
1662
102
{ACAD_REACTORS
330
165C
102
}
330
165C
100
AcDbXrecord
280
     1
270
     1
271
     1
  0
XRECORD
  5
165F
102
{ACAD_REACTORS
330
165C
102
}
330
165C
100
AcDbXrecord
280
     1
270
     1
271
     1
  0
CELLSTYLEMAP
  5
C891
102
{ACAD_REACTORS
330
19C0
102
}
330
19C0
100
AcDbCellStyleMap
 90
        3
300
CELLSTYLE
  1
TABLEFORMAT_BEGIN
 90
        5
170
     1
 91
        0
 92
    32768
 62
   257
 93
        1
300
CONTENTFORMAT
  1
CONTENTFORMAT_BEGIN
 90
        0
 91
        0
 92
      512
 93
        0
300

 40
0.0
140
1.0
 94
        5
 62
     0
340
11
144
0.25
309
CONTENTFORMAT_END
171
     1
301
MARGIN
  1
CELLMARGIN_BEGIN
 40
0.06
 40
0.06
 40
0.06
 40
0.06
 40
0.18
 40
0.18
309
CELLMARGIN_END
 94
        6
 95
        1
302
GRIDFORMAT
  1
GRIDFORMAT_BEGIN
 90
        0
 91
        1
 62
     0
 92
       -2
340
0
 93
        0
 40
0.045
309
GRIDFORMAT_END
 95
        2
302
GRIDFORMAT
  1
GRIDFORMAT_BEGIN
 90
        0
 91
        1
 62
     0
 92
       -2
340
0
 93
        0
 40
0.045
309
GRIDFORMAT_END
 95
        4
302
GRIDFORMAT
  1
GRIDFORMAT_BEGIN
 90
        0
 91
        1
 62
     0
 92
       -2
340
0
 93
        0
 40
0.045
309
GRIDFORMAT_END
 95
        8
302
GRIDFORMAT
  1
GRIDFORMAT_BEGIN
 90
        0
 91
        1
 62
     0
 92
       -2
340
0
 93
        0
 40
0.045
309
GRIDFORMAT_END
 95
       16
302
GRIDFORMAT
  1
GRIDFORMAT_BEGIN
 90
        0
 91
        1
 62
     0
 92
       -2
340
0
 93
        0
 40
0.045
309
GRIDFORMAT_END
 95
       32
302
GRIDFORMAT
  1
GRIDFORMAT_BEGIN
 90
        0
 91
        1
 62
     0
 92
       -2
340
0
 93
        0
 40
0.045
309
GRIDFORMAT_END
309
TABLEFORMAT_END
  1
CELLSTYLE_BEGIN
 90
        1
 91
        1
300
_TITLE
309
CELLSTYLE_END
300
CELLSTYLE
  1
TABLEFORMAT_BEGIN
 90
        5
170
     1
 91
        0
 92
        0
 62
   257
 93
        1
300
CONTENTFORMAT
  1
CONTENTFORMAT_BEGIN
 90
        0
 91
        0
 92
      512
 93
        0
300

 40
0.0
140
1.0
 94
        5
 62
     0
340
11
144
0.18
309
CONTENTFORMAT_END
171
     1
301
MARGIN
  1
CELLMARGIN_BEGIN
 40
0.06
 40
0.06
 40
0.06
 40
0.06
 40
0.18
 40
0.18
309
CELLMARGIN_END
 94
        6
 95
        1
302
GRIDFORMAT
  1
GRIDFORMAT_BEGIN
 90
        0
 91
        1
 62
     0
 92
       -2
340
0
 93
        0
 40
0.045
309
GRIDFORMAT_END
 95
        2
302
GRIDFORMAT
  1
GRIDFORMAT_BEGIN
 90
        0
 91
        1
 62
     0
 92
       -2
340
0
 93
        0
 40
0.045
309
GRIDFORMAT_END
 95
        4
302
GRIDFORMAT
  1
GRIDFORMAT_BEGIN
 90
        0
 91
        1
 62
     0
 92
       -2
340
0
 93
        0
 40
0.045
309
GRIDFORMAT_END
 95
        8
302
GRIDFORMAT
  1
GRIDFORMAT_BEGIN
 90
        0
 91
        1
 62
     0
 92
       -2
340
0
 93
        0
 40
0.045
309
GRIDFORMAT_END
 95
       16
302
GRIDFORMAT
  1
GRIDFORMAT_BEGIN
 90
        0
 91
        1
 62
     0
 92
       -2
340
0
 93
        0
 40
0.045
309
GRIDFORMAT_END
 95
       32
302
GRIDFORMAT
  1
GRIDFORMAT_BEGIN
 90
        0
 91
        1
 62
     0
 92
       -2
340
0
 93
        0
 40
0.045
309
GRIDFORMAT_END
309
TABLEFORMAT_END
  1
CELLSTYLE_BEGIN
 90
        2
 91
        1
300
_HEADER
309
CELLSTYLE_END
300
CELLSTYLE
  1
TABLEFORMAT_BEGIN
 90
        5
170
     1
 91
        0
 92
        0
 62
   257
 93
        1
300
CONTENTFORMAT
  1
CONTENTFORMAT_BEGIN
 90
        0
 91
        0
 92
      512
 93
        0
300

 40
0.0
140
1.0
 94
        2
 62
     0
340
11
144
0.18
309
CONTENTFORMAT_END
171
     1
301
MARGIN
  1
CELLMARGIN_BEGIN
 40
0.06
 40
0.06
 40
0.06
 40
0.06
 40
0.18
 40
0.18
309
CELLMARGIN_END
 94
        6
 95
        1
302
GRIDFORMAT
  1
GRIDFORMAT_BEGIN
 90
        0
 91
        1
 62
     0
 92
       -2
340
0
 93
        0
 40
0.045
309
GRIDFORMAT_END
 95
        2
302
GRIDFORMAT
  1
GRIDFORMAT_BEGIN
 90
        0
 91
        1
 62
     0
 92
       -2
340
0
 93
        0
 40
0.045
309
GRIDFORMAT_END
 95
        4
302
GRIDFORMAT
  1
GRIDFORMAT_BEGIN
 90
        0
 91
        1
 62
     0
 92
       -2
340
0
 93
        0
 40
0.045
309
GRIDFORMAT_END
 95
        8
302
GRIDFORMAT
  1
GRIDFORMAT_BEGIN
 90
        0
 91
        1
 62
     0
 92
       -2
340
0
 93
        0
 40
0.045
309
GRIDFORMAT_END
 95
       16
302
GRIDFORMAT
  1
GRIDFORMAT_BEGIN
 90
        0
 91
        1
 62
     0
 92
       -2
340
0
 93
        0
 40
0.045
309
GRIDFORMAT_END
 95
       32
302
GRIDFORMAT
  1
GRIDFORMAT_BEGIN
 90
        0
 91
        1
 62
     0
 92
       -2
340
0
 93
        0
 40
0.045
309
GRIDFORMAT_END
309
TABLEFORMAT_END
  1
CELLSTYLE_BEGIN
 90
        3
 91
        2
300
_DATA
309
CELLSTYLE_END
  0
ENDSEC
  0
EOF
